Oops, an error
Loading. Please wait.

Down In The Dumps Tab

10 views 3 this week
no commentswrite comment
1 2 3 4 5
3 more votes to show rating
add to favorites
launch autoscroll
font size
0
reset
how to read this tab
guitar tuner
Autoscroll
slow
fast
+/-
esc
set tempo
stop
Help us to improve Ultimate-Guitar.com Take our survey!
×
Author
Difficulty
intermediate
About this tab version
Tab for "Down in the Dumps" by Walk The Moon. Was this info helpful? Yes No
[Main Riff]
E|------10-|
B|--10-8---|
G|-9-------| (That riff plays throughout the verses an interludes)
D|---------|
A|---------|
E|---------|

[Pre-Chorus]
E|--|---|------|---|
B|1-|-1-|1/5-5-|-5-|
G|--|---|------|---| (pick notes as fast as possible) 
D|--|---|------|---|
A|--|---|------|---|
E|--|---|------|---|

[Chorus 1]
E|-------10-10---|--------14-14--|--------17-17--|---------------------|
B|-----12-----12-|---12-15-----15|---15-19-----19|---------------------|
G|-9-12----------|-12------------|-16------------|-14-14-14-11-11-11---|
D|---------------|---------------|---------------|------------------12-|
A|---------------|---------------|---------------|---------------------|
E|---------------|---------------|---------------|---------------------|

[Chorus 2]
E|-------------------|----14----14--14|----15----15--15|----14h15--15h14|-----12----12--12|----14----14--15-|
B|-----13----13--13--|--15----15------|--15----15------|--15------------|---13----13------|--15----15-------|
G|---12----12--------|14----14----14--|12----12----12--|16-------16-----|-12----12----12--|14----14----14---|
D|-10----10----10----|----------------|----------------|----------------|-----------------|-----------------|
A|-------------------|----------------|----------------|----------------|-----------------|-----------------|
E|-------------------|----------------|----------------|----------------|-----------------|-----------------|

E|12-12-12-12-12-12-12-12-|-12-|
B|12-12-12-12-12-12-12-12-|-12-|
G|10-10-10-10-10-10-10-10-|-10-|
D|------------------------|----|
A|------------------------|----|
E|------------------------|----|

[Transition from Chorus 2 to Solo]
E|10-8-7-|
B|-------|
G|-------|
D|-------|
A|-------|
E|-------|

[Solo]
E|------10|-----10|-----10-10-10|10-----10/14-14-14----|--14/17-17-17-17-------|----------|----------------|
B|--10-8--|-10-8--|-10-8--------|--12--------------15--|---------------19--17--|--15------|15--17--20-19---|
G|-9------|9------|9------------|----12--------------16|16---------------19--16|14--12--14|--16--19-----19-|
D|--------|-------|-------------|----------------------|-----------------------|----------|----------------|
A|--------|-------|-------------|----------------------|-----------------------|----------|----------------|
E|--------|-------|-------------|----------------------|-----------------------|----------|----------------|

E|-17h19|17------------------------|
B|------|--20-17-------------------|
G|------|-------19-16-14-12-14-16/9|
D|------|--------------------------|
A|------|--------------------------|
E|------|--------------------------|


************************************

| /  Slide up
| h  Hammer-on

************************************
Suggest correction
Give kudos to tab author, rate the tab!
1 2 3 4 5
comments
print report bad tab
guest
You may want to rate the tab now too:
select rating
Wanna post a correction for this tab? Suggest correction