Oops, an error
Loading. Please wait.

I Can Lift A Car Tab

11,587 views 27 this week
no commentswrite comment
1 2 3 4 5
excellent!
x 14
add to favorites
launch autoscroll
font size
0
reset
how to read this tab
guitar tuner
Autoscroll
slow
fast
+/-
esc
set tempo
stop
Help us to improve Ultimate-Guitar.com Take our survey!
×
Contributor
Difficulty
novice
-------------------------------------------------------------------------------
                             I CAN LIFT A CAR - Walk The Moon
-------------------------------------------------------------------------------
Tabbed by: lilmikers1024 
E-mail: sonicboom@whoever.com

Tuning: Standard

I just watched live performances of Walk the Moon on 
Youtube and copied what the guitarists do. Rhythm 
guitar is optional.

Rhythm: Intro
e|---------------------------------------------------------------------------|
B|---------------------------------------------------------------------------|
G|---------------------------------------------------------------------------|
D|---------------------------------------------------------------------------|
A|---------------------------------------------------------------------------|
E|--x--x--x--x--x--x--x--x--x--x--x--x---------------------------------------|

Rhythm: Throughout song
e|---------------------------------------------------------------------------|
B|---------------------------------------------------------------------------|
G|--6--6--6--6--6--6--6--6--7--7--7--7--7--7--7--7---------------------------|
D|--7--7--7--7--7--7--7--7--7--7--7--7--7--7--7--7---------------------------|
A|--7--7--7--7--7--7--7--7---------------------------------------------------|
E|---------------------------------------------------------------------------|

Lead: Intro
e|---------0---------------4-0-----------------------------------------------|
B|-------0---------------0------------0--------------------------------------|
G|--1-2-------------1-2---------------1h2p1--------2----\1-------------------|
D|-------------------------------------------------4----\2-------------------|
A|---------------------------------------------------------------------------|
E|---------------------------------------------------------------------------|

Lead: "When I come home..."
e|---------------------0--------0--------7-p5--------------------------------|
B|-------------------0----------2--------5--5--------------------------------|
G|--------------1-2-------------2--------6--6--------2-2-1-------------------|
D|---------------------------------------------------2-2---------------------|
A|---------------------------------------------------------------------------|
E|---------------------------------------------------------------------------|

Lead: "Mirages of you..."
e|---------------------4-0------0--------7-p5--------------------------------|
B|-------------------0----------2--------5--5--------------------------------|
G|--1-----------1-2-------------2--------6--6--------2-2-2-2-----------------|
D|--2------------------------------------------------2-2-2-2-----------------|
A|--2------------------------------------------------------------------------|
E|---------------------------------------------------------------------------|

Lead: "I won't lose it..." (Figure out the rhythm)
e|---------------------------------------------------------------------------|
B|---------------------------------------------------------------------------|
G|--1----1----1----1----1----2----2----2----2----2---------------------------|
D|--2----2----2----2----2----2----2----2----2----2---------------------------|
A|--2----2----2----2----2----------------------------------------------------|
E|---------------------------------------------------------------------------|

Lead: "Hold it steady..." (Figure out the rhythm)
e|---------------------------------------------------------------------------|
B|---------------------------------------------------------------------------|
G|--1----1----1----1----1----2----2----2----2----2---------------------------|
D|--2----2----2----2----2----2----2----2----2----2---------------------------|
A|--2----2----2----2----2----------------------------------------------------|
E|---------------------------------------------------------------------------|

Lead: "All by myself..."
e|---------------------------------------------------------------------------|
B|---------------------------------------------------------------------------|
G|--1--1--1--1--------2--2--2--2--------1--1--1--1--------2--2--2--2---------|x2
D|--2--2--2--2--------2--2--2--2--------2--2--2--2--------2--2--2--2---------|
A|--2--2--2--2--------------------------2--2--2--2---------------------------|
E|---------------------------------------------------------------------------|


Lead: "So you kissed me..."
e|---------------------4-0---------------------------------------------------|
B|-------------------0-----0-------------------------------------------------|
G|---------------1-2--------2-1-2-1--2----2----2----2----2----2--------------|
D|-----------------------------------2----2----2----2----2----2--------------|
A|---------------------------------------------------------------------------|
E|---------------------------------------------------------------------------|

Lead: "Did you did you..." (Figure out the rhythm)
e|---------------------------------------------------------------------------|
B|---------------------------------------------------------------------------|
G|--1----1----1----1----1----2----2----2----2----2---------------------------|
D|--2----2----2----2----2----2----2----2----2----2---------------------------|
A|--2----2----2----2----2----------------------------------------------------|
E|---------------------------------------------------------------------------|

Lead: Solo (Unsure about this)
e|-----|---------------------------------------------------------------------|
B|-----|---------------------------------------------------------------------|
G|--9--|--13-13-13-11-11-9----13-13-13-14--\9--------------------------------|x3
D|--9--|--11-11-11-11-11-9----11-11-11-11--\9--------------------------------|
A|-----|---------------------------------------------------------------------|
E|-----|---------------------------------------------------------------------|

Lead: Solo (continued)
e|---------------------------------------------------------------------------|
B|---------------------------------------------------------------------------|
G|--11-11-9-9---9----13-13-11-11--\9-----------------------------------------|
D|--11-11-9-9---9----11-11-11-11--\9-----------------------------------------|
A|---------------------------------------------------------------------------|
E|---------------------------------------------------------------------------|


************************************

| /   slide up
| \   slide down
| h   hammer-on
| p   pull-off
| ~   vibrato
| +   harmonic
| x   Mute note
| b   Bend
| pb  Pre-bend
| br  Bend release
| pbr Pre-bend release
| brb Bend release bend

************************************
comments
print report bad tab
I want to post or [tab]
guest
You may want to rate the tab now too:
select rating
Please do not post tabs as comments. Select "correction" instead!