Oops, an error
Loading. Please wait.

Jenny Bass

7,126 views 39 this week
2 commentsread comments
1 2 3 4 5
x 3
add to favorites
launch autoscroll
font size
0
reset
guitar tuner
×
Best way to learn
"Jenny"
Autoscroll
slow
fast
+/-
esc
set tempo
stop
Author
Difficulty
novice
-----------------------------------------------------------------------------------
                                                          JENNY - Walk the Moon
-----------------------------------------------------------------------------------
Tabbed by: were123
Tuning:Standard


Intro: 0:01 - 0:06
G|-------------------------------------------|
D|--------8---------8----------8----------8--|
A|-------8--------8----------8----------8----| 
E|-0-6-6----0-6-6------0-6-6------0-6-6------|

Verse 0:06 - 0:33
G|------------------------------------------------|
D|--------8---------8----------8------------------|
A|-------8--------8----------8--------------------|
E|-0-6-6----0-6-6------0-6-6-------6\2------------| x2

G|---------8--------8--------------------------------|
D|-------8--------8---------8-------- 8--------------|
A|-0-6-6----0-6-6---------8---------8----------------|
E|-------------------0-6-6-----0-6-6-----------------|

G|-------8---------8------------------------------------|
D|------8---------8-------------------------------------|
A|-0-6-6----0-6-6---------------------------------------|
E|----------------------1-1-1-1-1-1-1-1-1-1-1-1-1-1-1-1-|

Chorus 0:33 - 0:47 
G|---------------------------------------------------|
D|--------------------------------8--8-------11-8----| 
A|----------------------4-6--------8-----------------|
E|-2-2-2-0-2-2---4-4-4-------6-6-6------8-8-8--------|

G|------------------------------8-8------8-8--------|
D|---------------------------------8--------8-------| 
A|----------------------4-6----6--------6-----------|
E|-2-2-2-0-2-2--4-4-4-------------------------------|

Instrumental 0:47 - 1:01
G|-------------------------------------------|    
D|--------8---------8----------8----------8--|
A|-------8--------8----------8----------8----|
E|-0-6-6----0-6-6------0-6-6------0-6-6------| 

G|----------------------------------6---6-----|    
D|--------8---------8----------8---8-8-8-8----|
A|-------8--------8----------8----------------|
E|-0-6-6----0-6-6------0-6-6------------------|


Verse 0:47 - 1:30
G|------------------------------------------------|
D|--------8---------8----------8------------------|
A|-------8--------8----------8--------------------|
E|-0-6-6----0-6-6------0-6-6-------6\2------------| x2

G|---------8--------8--------------------------------|
D|-------8--------8---------8---------8--------------|
A|-0-6-6----0-6-6---------8---------8----------------|
E|-------------------0-6-6-----0-6-6-----------------|

G|-------8---------8--------------------------------------------------------------------|
D|------8---------8---------------------------------------------------------------------|
A|-0-6-6----0-6-6-----------------------------------------------------------------------|
E|---------------------1-1-1-1-1-1-1-1-1-1-1-1-1-1-1-1-1-1-1-1-1-1-1-1-1-1-1-1-1-1-1-1--|

Chorus 1:30 - 2:03
G|---------------------------------------------------|
D|--------------------------------8--8-------11-8----| 
A|----------------------4-6--------8-----------------|
E|-2-2-2-0-2-2---4-4-4-------6-6-6------8-8-8--------|

G|------------------------------8-8------8-8--------|
D|---------------------------------8--------8-------| 
A|----------------------4-6----6--------6-----------|
E|-2-2-2-0-2-2--4-4-4-------------------------------| 

Repeat twice and end with this

G|--------8-8------8-8-----|
D--------8--------8--------| 
A|------6--------6---------|
E--------------------------| 

(I'm not gonna take it from you...) 2:03 - 2:37
G|-------------------|
D|-------------------|
A|-------------------|
E|-6-6-6-6-6-6-6-6---| x10

2:37 - 3:06
G|-------------------------------------------------|
D|-------------------------------------------------|
A|------------------------------4-4-4-4------------|
E|-2-2-2-2---4-4-4-4---6-6-6-6---------------------| x3

G|---------------------8-8-------8-8--------------|
D|------------------------8---------8-------------|
A|--------------------6--------6------------------|
E|-2-2-2-2---4-4-4-4------------------------------|

Chorus 3:06 - 3:34
G|---------------------------------------------------|
D|--------------------------------8--8-------11-8----| 
A|----------------------4-6--------8-----------------|
E|-2-2-2-0-2-2---4-4-4-------6-6-6------8-8-8--------|

G|------------------------------8-8------8-8--------|
D|---------------------------------8--------8-------| 
A|----------------------4-6----6--------6-----------|
E|-2-2-2-0-2-2--4-4-4--------------------------6\2--|

Repeat

Outro
G|-------------------------------------------|    
D|--------8---------8----------8----------8--|
A|-------8--------8----------8----------8----|
E|-0-6-6----0-6-6------0-6-6------0-6-6------| x2

G|-------------|
D|-------------|
A|-------------|
E|--6\2--------|

Repeat

| /  slide up
| \  slide down
| h  hammer-on
| p  pull-off
| ~  vibrato
| +  harmonic
| x  Mute note
============================================================================
Suggest correction
Give kudos to tab author, rate the tab!
1 2 3 4 5
comments
print report bad tab
2 comments total.
0 reply
Jcbrown29 10 Apr 24, 2015 05:03 PM

Lack of accuracy. Tab incomplete. Clearly wrong. This tab just isnt right! Check out chris khalifes version for an acurate rendition of an awesome song! peace out

guest
You may want to rate the tab now too:
select rating
Wanna post a correction for this tab? Suggest correction