Oops, an error
Loading. Please wait.

Lisa Baby tab

652 views 3 this week
no commentswrite comment
1 2 3 4 5
x 5
add to favorites
×
Save as Personal and add changes to this tab that will be seen only by you. Learn more ›
×
You can save this tab as Personal to edit and correct it or add notes. All changes will be seen only by you. Learn more »
launch autoscroll
font size
0
reset
how to read this tab
guitar tuner
edit
Autoscroll
slow
fast
+/-
esc
set tempo
stop
Author
Hey guys! This is my first tab on this site, requested on my Youtube page.
Here's a link to the video: https://www.youtube.com/watch?v=vpIoPUo_t-4


[INTRO/RIFF] x3

*The first few muted strokes are a pickup. The down-beat is at the first "5".

e|x-x-x-x-5---5---5---x-x-5---5---x-x-x-x-5---5---x-x-x-x-5---5---x-x-x-x----|
B|x-x-x-x-5---5---5---x-x-5---5---x-x-x-x-5---5---x-x-x-x-5---5---x-x-x-x----|
G|x-x-x-x-5---5---5---x-x-5---5---x-x-x-x-5---5---x-x-x-x-5---5---x-x-x-x----|
D|x-x-x-x-------------x-x---------x-x-x-x---------x-x-x-x---------x-x-x-x----|
A|x-x-x-x-------------x-x---------x-x-x-x---------x-x-x-x---------x-x-x-x----|
E|x-x-x-x-------------x-x---------x-x-x-x---------x-x-x-x---------x-x-x-x----|


[VERSE] x2

*The chords here are an approximation. They seem logical to me, as these are
pretty standard chord voicings. Note that I've added a bar line in the upper
line for rhythmic clarity.

e|5-----------------------------------|10------------------------------------|
B|5-----------------------------------|10------------------------------------|
G|5-----------------------------------|10------------------------------------|
D|3-----------------------------------|10------------------------------------|
A|------------------------------------|--------------------------------------|
E|------------------------------------|--------------------------------------|

e|x-x-x-x-5---5---5---x-x-5---5---x-x-x-x-5---5---x-x-x-x-5---5---x-x-x-x----|
B|x-x-x-x-5---5---5---x-x-5---5---x-x-x-x-5---5---x-x-x-x-5---5---x-x-x-x----|
G|x-x-x-x-5---5---5---x-x-5---5---x-x-x-x-5---5---x-x-x-x-5---5---x-x-x-x----|
D|x-x-x-x-------------x-x---------x-x-x-x---------x-x-x-x---------x-x-x-x----|
A|x-x-x-x-------------x-x---------x-x-x-x---------x-x-x-x---------x-x-x-x----|
E|x-x-x-x-------------x-x---------x-x-x-x---------x-x-x-x---------x-x-x-x----|


[CHORUS]

*Just more chords here. There's two variants in strum pattern – one for the
soft choruses, which is mostly whole notes, and one for the loud chorus, which
is just eighth notes the whole time (also omit the last measure). For the sake of brevity, I'll
just write out the soft chorus pattern. Once again, I've added bar lines.

e|6-----------------------------------|5------------------5------------------|
B|6-----------------------------------|6------------------5------------------|
G|7-----------------------------------|5------------------5------------------|
D|8-----------------------------------|7------------------5------------------|
A|------------------------------------|--------------------------------------|
E|------------------------------------|--------------------------------------|

e|6-----------------------------------|10------------------5-----------------|
B|6-----------------------------------|10------------------5-----------------|
G|7-----------------------------------|10------------------5-----------------|
D|8-----------------------------------|10------------------5-----------------|
A|------------------------------------|--------------------------------------|
E|------------------------------------|--------------------------------------|

e|6-----------------------------------|5------------------5------------------|
B|6-----------------------------------|6------------------5------------------|
G|7-----------------------------------|5------------------5------------------|
D|8-----------------------------------|7------------------5------------------|
A|------------------------------------|--------------------------------------|
E|------------------------------------|--------------------------------------|

e|6-----------------------------------|6---6---6---6---8---------------------|
B|6-----------------------------------|6---6---6---6---8---------------------|
G|7-----------------------------------|7---7---7---7---9---------------------|
D|8-----------------------------------|8---8---8---8---10--------------------|
A|------------------------------------|--------------------------------------|
E|------------------------------------|--------------------------------------|


[VERSE] x2

e|5-----------------------------------|10------------------------------------|
B|5-----------------------------------|10------------------------------------|
G|5-----------------------------------|10------------------------------------|
D|3-----------------------------------|10------------------------------------|
A|------------------------------------|--------------------------------------|
E|------------------------------------|--------------------------------------|

e|x-x-x-x-5---5---5---x-x-5---5---x-x-x-x-5---5---x-x-x-x-5---5---x-x-x-x----|
B|x-x-x-x-5---5---5---x-x-5---5---x-x-x-x-5---5---x-x-x-x-5---5---x-x-x-x----|
G|x-x-x-x-5---5---5---x-x-5---5---x-x-x-x-5---5---x-x-x-x-5---5---x-x-x-x----|
D|x-x-x-x-------------x-x---------x-x-x-x---------x-x-x-x---------x-x-x-x----|
A|x-x-x-x-------------x-x---------x-x-x-x---------x-x-x-x---------x-x-x-x----|
E|x-x-x-x-------------x-x---------x-x-x-x---------x-x-x-x---------x-x-x-x----|


[CHORUS]

e|6-----------------------------------|5------------------5------------------|
B|6-----------------------------------|6------------------5------------------|
G|7-----------------------------------|5------------------5------------------|
D|8-----------------------------------|7------------------5------------------|
A|------------------------------------|--------------------------------------|
E|------------------------------------|--------------------------------------|

e|6-----------------------------------|10------------------5-----------------|
B|6-----------------------------------|10------------------5-----------------|
G|7-----------------------------------|10------------------5-----------------|
D|8-----------------------------------|10------------------5-----------------|
A|------------------------------------|--------------------------------------|
E|------------------------------------|--------------------------------------|

e|6-----------------------------------|5------------------5------------------|
B|6-----------------------------------|6------------------5------------------|
G|7-----------------------------------|5------------------5------------------|
D|8-----------------------------------|7------------------5------------------|
A|------------------------------------|--------------------------------------|
E|------------------------------------|--------------------------------------|

e|6-----------------------------------|6---6---6---6---8---------------------|
B|6-----------------------------------|6---6---6---6---8---------------------|
G|7-----------------------------------|7---7---7---7---9---------------------|
D|8-----------------------------------|8---8---8---8---10--------------------|
A|------------------------------------|--------------------------------------|
E|------------------------------------|--------------------------------------|


[SOLO]

(un-tabbed, but you can play INTRO/RIFF 4x as a background figure here)


[LOUD VERSE] x2

*Same as the other verse, just loud, and with quarter note hits.

e|5--------5---------5--------5-------|10-------10--------10--------10-------|
B|5--------5---------5--------5-------|10-------10--------10--------10-------|
G|5--------5---------5--------5-------|10-------10--------10--------10-------|
D|3--------3---------3--------3-------|10-------10--------10--------10-------|
A|------------------------------------|--------------------------------------|
E|------------------------------------|--------------------------------------|

e|x-x-x-x-5---5---5---x-x-5---5---x-x-x-x-5---5---x-x-x-x-5---5---x-x-x-x----|
B|x-x-x-x-5---5---5---x-x-5---5---x-x-x-x-5---5---x-x-x-x-5---5---x-x-x-x----|
G|x-x-x-x-5---5---5---x-x-5---5---x-x-x-x-5---5---x-x-x-x-5---5---x-x-x-x----|
D|x-x-x-x-------------x-x---------x-x-x-x---------x-x-x-x---------x-x-x-x----|
A|x-x-x-x-------------x-x---------x-x-x-x---------x-x-x-x---------x-x-x-x----|
E|x-x-x-x-------------x-x---------x-x-x-x---------x-x-x-x---------x-x-x-x----|


[CHORUS]

*play it loud

e|6-----------------------------------|5------------------5------------------|
B|6-----------------------------------|6------------------5------------------|
G|7-----------------------------------|5------------------5------------------|
D|8-----------------------------------|7------------------5------------------|
A|------------------------------------|--------------------------------------|
E|------------------------------------|--------------------------------------|

e|6-----------------------------------|10------------------5-----------------|
B|6-----------------------------------|10------------------5-----------------|
G|7-----------------------------------|10------------------5-----------------|
D|8-----------------------------------|10------------------5-----------------|
A|------------------------------------|--------------------------------------|
E|------------------------------------|--------------------------------------|

e|6-----------------------------------|5------------------5------------------|
B|6-----------------------------------|6------------------5------------------|
G|7-----------------------------------|5------------------5------------------|
D|8-----------------------------------|7------------------5------------------|
A|------------------------------------|--------------------------------------|
E|------------------------------------|--------------------------------------|

e|6-----------------------------------|6---6---6---6---8---------------------|
B|6-----------------------------------|6---6---6---6---8---------------------|
G|7-----------------------------------|7---7---7---7---9---------------------|
D|8-----------------------------------|8---8---8---8---10--------------------|
A|------------------------------------|--------------------------------------|
E|------------------------------------|--------------------------------------|


[BRIDGE] x4

*Just these two chords over and over again. Note that you can throw in a
drop-2 major 7 voicing for Bb in place of the first chord once or twice.
I've marked it in parentheses here. These are NOT ghost notes

e|6-(10)------------------------------|--------------------8-----------------|
B|6-(10)------------------------------|--------------------8-----------------|
G|7-(10)------------------------------|--------------------9-----------------|
D|8-(8)-------------------------------|--------------------10----------------|
A|------------------------------------|--------------------------------------|
E|------------------------------------|--------------------------------------|


[RIFF] x4

e|x-x-x-x-5---5---5---x-x-5---5---x-x-x-x-5---5---x-x-x-x-5---5---x-x-x-x----|
B|x-x-x-x-5---5---5---x-x-5---5---x-x-x-x-5---5---x-x-x-x-5---5---x-x-x-x----|
G|x-x-x-x-5---5---5---x-x-5---5---x-x-x-x-5---5---x-x-x-x-5---5---x-x-x-x----|
D|x-x-x-x-------------x-x---------x-x-x-x---------x-x-x-x---------x-x-x-x----|
A|x-x-x-x-------------x-x---------x-x-x-x---------x-x-x-x---------x-x-x-x----|
E|x-x-x-x-------------x-x---------x-x-x-x---------x-x-x-x---------x-x-x-x----|


[OUTRO]

*This is just the last chord of the song. 

e|5~~~~~~--------------------------------------------------------------------|
B|5~~~~~~--------------------------------------------------------------------|
G|5~~~~~~--------------------------------------------------------------------|
D|3~~~~~~--------------------------------------------------------------------|
A|---------------------------------------------------------------------------|
E|---------------------------------------------------------------------------|


************************************
| x   Dead note
| ~   Vibrato
************************************

            
            
Suggest correction
Creating personal tab
Creating personal tab
You can edit any tab online and save it as your Personal.

You can edit, replace or remove any tab part or add personal notes – all changes will be seen only by you.

Personal tabs can be accessed anytime from any device, even offline.
Learn more »
comments
print report bad tab
guest
You may want to rate the tab now too:
select rating
Wanna post a correction for this tab? Suggest correction