Oops, an error
Loading. Please wait.

Quesadilla Tab

12,772 views 12 this week
no commentswrite comment
1 2 3 4 5
x 6
add to favorites
launch autoscroll
font size
0
reset
how to read this tab
guitar tuner
Autoscroll
slow
fast
+/-
esc
set tempo
stop
Help us to improve Ultimate-Guitar.com Take our survey!
×
Author
Difficulty
novice
Quesadilla - Walk the Moon (Self Titled/I Want! I Want!)
Tabbed by Jameson G.
jpghalio@yahoo.com for questions or comments

Chords Needed:

(A Major)

|-5-|
|-5-|
|-6-|
|-7-|
|-7-|
|-5-|

(D Major 7) 
|-5-|
|-7-|
|-6-|
|-7-|
|-5-|
|---|

(E Major)
|-9-|
|-9-|
|-9-|
|-9-|
|-7-|
|---|


(F# Minor)

|-2-|
|-2-|
|-2-|
|-4-|
|-4-|
|-2-|


(F#m6/D#) 
|-5-|
|-7-|
|-6-|
|-7-|
|-6-|
|---|

 (B Major)
|-2-|
|-3-|
|-4-|
|-4-|
|-2-|
|---|

(C# Major)
|-4-|
|-5-|
|-6-|
|-6-|
|-4-|
|---|


Intro(A)

Verse 1

I must've tumbled out of a plane (A)
Cause I free-fell all year(A)
My chute is blooming out like spring(D)
And I'm nowhere now (E)
but here (A)

Pre Chorus
(F#) When I see your long hair come 
(D)down - 
(F#m6/D#)It turned my head 
(D)inside out 
(D)And I want you, 
(B)I want you
I still do


Chorus 1

|(A) |  |   |    | 
|(C#)|  |(F)| (E)|
|(D) |  |(B)|



And -With Second Guitar-

|-0-2----------------|
|-----0-2------------|
|------------2-------|
|---------4----------|
|--------------------|
|--------------------|

|-0-2----------------|
|-----0-2------------|
|------------4-2-----|
|---------4----------|
|--------------------|
|--------------------|

|--------------------|
|--0-2---------------|
|-2------------------|
|-------2------------|
|--------------------|
|--------------------|

|--------------------|
|--0-2---------------|
|-2------------------|
|-------0------------|
|--------------------|
|--------------------|




Verse 2 (Same but only play the base note)

Pre-Chorus 2 

Chorus 2:
|(A) |  |   |    | 
|(C#)|  |(F)| (E)|
|(D) |  |(B)|
|(D) |  |(B)|

Outro:
E|-5-5-5--------------|

** I have yet to figure out the end little riffs you hear on the "Walk the Moon" 
Self titled album version where it is present.
Suggest correction
comments
print report bad tab
guest
You may want to rate the tab now too:
select rating
Wanna post a correction for this tab? Suggest correction