Oops, an error
Loading. Please wait.

Shut Up And Dance Tab

version 1
version 1

Solo

Whole song

  • This version is more organized and accurate than the other versions.
  • I have a full solo that I belive to be correct, an... Show more

Interactive

370 views 33 this week
no commentswrite comment
1 2 3 4 5
2 more votes to show rating
add to favorites
launch autoscroll
font size
0
reset
how to read this tab
guitar tuner
Autoscroll
slow
fast
+/-
esc
set tempo
stop
Help us to improve Ultimate-Guitar.com Take our survey!
×
Author
Difficulty
intermediate
For the solo it's:


e|-------------------------------------------------------|
B|-------9------9--11--9---------------------------------|
G|----------10~----------11--9--8------------------------|
D|----11--------------------------11---------------------|
A|-------------------------------------------------------|
E|-------------------------------------------------------|




e|-------------------------------------------------------|
B|-------9-----9--11--9--11\14~--------------------------|
G|---------10--------------------------------------------|
D|----11-------------------------------------------------|
A|-------------------------------------------------------|
E|-------------------------------------------------------|



e|-----------------------------------------16---18---22--|
B|------------------------14---16---18--16---16----------|
G|------------13----15--13--13---15----------------------|
D|-------15------13--------------------------------------|
A|----13----16-------------------------------------------|
E|-------------------------------------------------------|


e|----11-----13-----14-----16---16--16--16---------------|
B|-------14b----16b----17b----19b-19b-19b-19b------------|
G|-------------------------------------------------------|
D|-------------------------------------------------------|
A|-------------------------------------------------------|
E|-------------------------------------------------------|


I hope you liked it!!
Suggest correction
Give kudos to tab author, rate the tab!
1 2 3 4 5
comments
print report bad tab
guest
You may want to rate the tab now too:
select rating
Wanna post a correction for this tab? Suggest correction