Oops, an error
Loading. Please wait.

Shut Up And Dance tab

version 5
version 5

Whole song

  • This version is more organized and accurate than the other versions.
  • I have a full solo that I belive to be correct, an... Show more

Interactive

Video

1,644 views 6 this week
no commentswrite comment
1 2 3 4 5
1 last vote to show rating
add to favorites
×
Save as Personal and add changes to this tab that will be seen only by you. Learn more ›
×
You can save this tab as Personal to edit and correct it or add notes. All changes will be seen only by you. Learn more »
launch autoscroll
font size
0
reset
how to read this tab
guitar tuner
edit
Autoscroll
slow
fast
+/-
esc
set tempo
stop
Author
Difficulty
intermediate
About this tab version
This version is more organized and accurate than the other versions. Was this info helpful? Yes No
Tuning: Standard

(Guitar 1)
[Intro]
(30x)
e|xxxx-----------------------------------------------------------------------|
B|xxxx-----------------------------------------------------------------------|
G|xxxx-----------------------------------------------------------------------|
D|xxxx-----------------------------------------------------------------------|
A|xxxx-----------------------------------------------------------------------|
E|xxxx-----------------------------------------------------------------------|

[Verse]
e|---------------------------------------------------------------------------|
B|---------------------------------------------------------------------------|
G|---------------------------------------------------------------------------|
D|66-66-66-------------------------------------------------------------------|
A|44-33-66-------------------------------------------------------------------|
E|------44-------------------------------------------------------------------|

[Pre-chorus 1]
e|---------------------------------------------------------------------------|
B|---------------------------------------------------------------------------|
G|---------------------------------------------------------------------------|
D|---------66-66-66-4--------6-6666------------------------------------------|
A|44-44----44-33-66-4-44-44--6-6666------------------------------------------|
E|11-22----------44-2-11-22--4-4444------------------------------------------|

[Chorus]
(2x)
e|---------------------------------------------------------------------------|
B|---------------------------------------------------------------------------|
G|---------------------------------------------------------------------------|
D|---------------------------------------------------------------------------|
A|111111-44444-888-66666-111111-44444-8-8-6-6--------------------------------|
E|9-9-9--22222-666-44444-9-9-9--22222-6-6-4-4--------------------------------|

[Verse]
e|---------------------------------------------------------------------------|
B|---------------------------------------------------------------------------|
G|---------------------------------------------------------------------------|
D|66-66-66-------------------------------------------------------------------|
A|44-33-66-------------------------------------------------------------------|
E|------44-------------------------------------------------------------------|

[Pre-chorus 1]
e|---------------------------------------------------------------------------|
B|---------------------------------------------------------------------------|
G|---------------------------------------------------------------------------|
D|---------66-66-66-4--------6-6666------------------------------------------|
A|44-44----44-33-66-4-44-44--6-6666------------------------------------------|
E|11-22----------44-2-11-22--4-4444------------------------------------------|

[Chorus]
e|---------------------------------------------------------------------------|
B|---------------------------------------------------------------------------|
G|---------------------------------------------------------------------------|
D|---------------------------------------------------------------------------|
A|111111-44444-888-66666-111111-44444-8-8-6-6--------------------------------|
E|9-9-9--22222-666-44444-9-9-9--22222-6-6-4-4--------------------------------|

[Bridge]
e|---------------------------------------------------------------------------|
B|---------------------------------------------------------------------------|
G|---------------------------------------------------------------------------|
D|4--------------------------------------------------------------------------|
A|4---------------888-1111111111-444-66666-888-1111111111-444-66666----------|
E|2---------------666-9-9-9-9-9--222-44444-666-9-9-9-9-9--222-44444----------|

e|---------------------------------------------------------------------------|
B|---------------------------------------------------------------------------|
G|---------------------------------------------------------------------------|
D|------------------------------------66666666-------------------------------|
A|888-1111111111-444-66666-88-1111-44-66666666-------------------------------|
E|666-9-9-9-9-9--222-44444-66-9-9--22-44444444-------------------------------|

[Pre-chorus 2]
e|---------------------------------------------------------------------------|
B|---------------------------------------------------------------------------|
G|---------------------------------------------------------------------------|
D|---------66-66-66-4----------66-66-66-4----------66-66-66-4--------6-666666|
A|44-44----44-33-66-4-44-44----44-33-66-4-44-44----44-33-66-4-44-44--6-666666|
E|11-22----------44-2-11-22----------44-2-11-22----------44-2-11-22--4-444444|

[Instrumental] (x33)
e|xxxx-----------------------------------------------------------------------|
B|xxxx-----------------------------------------------------------------------|
G|xxxx-----------------------------------------------------------------------|
D|xxxx-----------------------------------------------------------------------|
A|xxxx-----------------------------------------------------------------------|
E|xxxx-----------------------------------------------------------------------|

[Chorus] (x4)
e|---------------------------------------------------------------------------|
B|---------------------------------------------------------------------------|
G|---------------------------------------------------------------------------|
D|---------------------------------------------------------------------------|
A|111111-44444-888-66666-111111-44444-8-8-6-6--------------------------------|
E|9-9-9--22222-666-44444-9-9-9--22222-6-6-4-4--------------------------------|

[Ending]
e|---------------------------------------------------------------------------|
B|---------------------------------------------------------------------------|
G|---------------------------------------------------------------------------|
D|-----------66666666--------------------------------------------------------|
A|88-1111-44-66666666--------------------------------------------------------|
E|66-9-9--22-44444444--------------------------------------------------------|

(Guitar 2)
[Instrumental]
(5x)
e|-----9------9-----------9------9-------------------------------------------|
B|---9------9------9----9------9------9--------------------------------------|
G|10-----11-----11---10------------------------------------------------------|
D|--------------------------13-----13----------------------------------------|
A|---------------------------------------------------------------------------|
E|---------------------------------------------------------------------------|

e|xxxxxxxxxxxxxxxxxxxxxxxxxxxxxxxxxxxxxxxxxxxxxxxx---------------------------|
B|xxxxxxxxxxxxxxxxxxxxxxxxxxxxxxxxxxxxxxxxxxxxxxxx---------------------------|
G|x6x6x6x6x66xx6x6x6x6x66xx6x6x6x6x66xx6xxxxx6x66x---------------------------|
D|xxxxxxxxxxxxxxxxxxxxxxxxxxxxxxxxxxxxxxxxxxxxxxxx---------------------------|
A|---------------------------------------------------------------------------|
E|---------------------------------------------------------------------------|

[Verse]
(7x)
e|xxxxxxxxxxxx---------------------------------------------------------------|
B|xxxxxxxxxxxx---------------------------------------------------------------|
G|x6x6x6x6x66x---------------------------------------------------------------|
D|xxxxxxxxxxxx---------------------------------------------------------------|
A|---------------------------------------------------------------------------|
E|---------------------------------------------------------------------------|

[Pre-chorus 1]
e|---------------------------------xxxxxx------------------------------------|
B|66-77----66-4444-2-66-77--4-4444-xxxxxx------------------------------------|
G|66-66----66-5555-3-66-66--5-5555-xxxxxx------------------------------------|
D|66-88----66-6666-4-66-88--6-6666-xxxxxx------------------------------------|
A|--------------------------6-6666-xxxxxx------------------------------------|
E|---------------------------------------------------------------------------|

[Chorus 1]
e|---------------------------------------------------------------------------|
B|9-9-9-9-9--9-9-9-9-9-9-9--9-9-9-9-9--9-9-9-9-9-9-9-------------------------|
G|1010101010-11111111111111-1010101010-8-8-8-8-8-8-8-------------------------|
D|1111111111-11111111111111-1111111111-10101010101010------------------------|
A|---------------------------------------------------------------------------|
E|---------------------------------------------------------------------------|

e|---------------------------------------------------------------------------|
B|9-9-9-9-9--9-9-9-9-9-9-9--9-9-9--9--9--9-----------------------------------|
G|1010101010-11111111111111-101010-10-8--8-----------------------------------|
D|1111111111-11111111111111-111111-11-10-10----------------------------------|
A|---------------------------------------------------------------------------|
E|---------------------------------------------------------------------------|

e|---------------------------------------------------------------------------|
B|9-9-9-9-9--9-9-9-9-9-9-9--9-9-9-9-9--9-9-9-9-9-9-9-------------------------|
G|1010101010-11111111111111-1010101010-8-8-8-8-8-8-8-------------------------|
D|1111111111-11111111111111-1111111111-10101010101010------------------------|
A|---------------------------------------------------------------------------|
E|---------------------------------------------------------------------------|

e|---------------------------------------------------------------------------|
B|9-9-9-9-9--9-9-9-9-9-9-9--9-9-9--9--9--9-----------------------------------|
G|1010101010-11111111111111-101010-10-8--8-----------------------------------|
D|1111111111-11111111111111-111111-11-10-10----------------------------------|
A|---------------------------------------------------------------------------|
E|---------------------------------------------------------------------------|

[Interlude]
e|xxxxxxxxxxxxxxxxxxxxx------------------------------------------------------|
B|xxxxxxxxxxxxxxxxxxxxx------------------------------------------------------|
G|x6x6x6x6x66xx6xx88888------------------------------------------------------|
D|xxxxxxxxxxxxxxxxxxxxx------------------------------------------------------|
A|---------------------------------------------------------------------------|
E|---------------------------------------------------------------------------|

[Verse]
(7x)
e|xxxxxxxxxxxx---------------------------------------------------------------|
B|xxxxxxxxxxxx---------------------------------------------------------------|
G|x6x6x6x6x66x---------------------------------------------------------------|
D|xxxxxxxxxxxx---------------------------------------------------------------|
A|---------------------------------------------------------------------------|
E|---------------------------------------------------------------------------|

[Pre-chorus 1]
e|---------------------------------xxxxxx------------------------------------|
B|66-77----66-4444-2-66-77--4-4444-xxxxxx------------------------------------|
G|66-66----66-5555-3-66-66--5-5555-xxxxxx------------------------------------|
D|66-88----66-6666-4-66-88--6-6666-xxxxxx------------------------------------|
A|--------------------------6-6666-xxxxxx------------------------------------|
E|---------------------------------------------------------------------------|

[Chorus 1]
e|---------------------------------------------------------------------------|
B|9-9-9-9-9--9-9-9-9-9-9-9--9-9-9-9-9--9-9-9-9-9-9-9-------------------------|
G|1010101010-11111111111111-1010101010-8-8-8-8-8-8-8-------------------------|
D|1111111111-11111111111111-1111111111-10101010101010------------------------|
A|---------------------------------------------------------------------------|
E|---------------------------------------------------------------------------|

e|---------------------------------------------------------------------------|
B|9-9-9-9-9--9-9-9-9-9-9-9--9-9-9--9--9--9-----------------------------------|
G|1010101010-11111111111111-101010-10-8--8-----------------------------------|
D|1111111111-11111111111111-111111-11-10-10----------------------------------|
A|---------------------------------------------------------------------------|
E|---------------------------------------------------------------------------|

e|---------------------------------------------------------------------------|
B|9-9-9-9-9--9-9-9-9-9-9-9--9-9-9-9-9--9-9-9-9-9-9-9-------------------------|
G|1010101010-11111111111111-1010101010-8-8-8-8-8-8-8-------------------------|
D|1111111111-11111111111111-1111111111-10101010101010------------------------|
A|---------------------------------------------------------------------------|
E|---------------------------------------------------------------------------|

e|---------------------------------------------------------------------------|
B|9-9-9-9-9--9-9-9-9-9-9-9--9-9-9--9--9--9-----------------------------------|
G|1010101010-11111111111111-101010-10-8--8-----------------------------------|
D|1111111111-11111111111111-111111-11-10-10----------------------------------|
A|---------------------------------------------------------------------------|
E|---------------------------------------------------------------------------|


[Pre-chorus 2]
e|---------------------------xxxx--------------------------------------------|
B|66-77----66-4444-2---66-77-xxxx-66-4444-2---66-77----66-4444-2-------------|
G|66-66----66-5555-3---66-66-xxxx-66-5555-3---66-66----66-5555-3-------------|
D|66-88----66-6666-4---66-88-xxxx-66-6666-4---66-88----66-6666-4-------------|
A|---------------------------xxxx--------------------------------------------|
E|---------------------------------------------------------------------------|

e|---------------------------------------------------------------------------|
B|66-77-4-444444-------------------------------------------------------------|
G|66-66-5-555555-------------------------------------------------------------|
D|66-88-6-666666-------------------------------------------------------------|
A|------6-666666-------------------------------------------------------------|
E|---------------------------------------------------------------------------|

[Instrumental] (x33)
e|xxxx-----------------------------------------------------------------------|
B|xxxx-----------------------------------------------------------------------|
G|xxxx-----------------------------------------------------------------------|
D|xxxx-----------------------------------------------------------------------|
A|xxxx-----------------------------------------------------------------------|
E|xxxx-----------------------------------------------------------------------|

[Chorus 2]
e|-----9------9--------------------------------------------------------------|
B|---9------9------9---------------------------------------------------------|
G|10-----11-----11-----------------------------------------------------------|
D|---------------------------------------------------------------------------|
A|---------------------------------------------------------------------------|
E|---------------------------------------------------------------------------|

[Chorus 1]
e|---------------------------------------------------------------------------|
B|9-9-9-9-9--9-9-9-9-9-9-9--9-9-9-9-9--9-9-9-9-9-9-9-------------------------|
G|1010101010-11111111111111-1010101010-8-8-8-8-8-8-8-------------------------|
D|1111111111-11111111111111-1111111111-10101010101010------------------------|
A|---------------------------------------------------------------------------|
E|---------------------------------------------------------------------------|

e|---------------------------------------------------------------------------|
B|9-9-9-9-9--9-9-9-9-9-9-9--9-9-9--9--9--9-----------------------------------|
G|1010101010-11111111111111-101010-10-8--8-----------------------------------|
D|1111111111-11111111111111-111111-11-10-10----------------------------------|
A|---------------------------------------------------------------------------|
E|---------------------------------------------------------------------------|

e|---------------------------------------------------------------------------|
B|9-9-9-9-9--9-9-9-9-9-9-9--9-9-9-9-9--9-9-9-9-9-9-9-------------------------|
G|1010101010-11111111111111-1010101010-8-8-8-8-8-8-8-------------------------|
D|1111111111-11111111111111-1111111111-10101010101010------------------------|
A|---------------------------------------------------------------------------|
E|---------------------------------------------------------------------------|

e|---------------------------------------------------------------------------|
B|9-9-9-9-9--9-9-9-9-9-9-9--9-9-9--9--9--9-----------------------------------|
G|1010101010-11111111111111-101010-10-8--8-----------------------------------|
D|1111111111-11111111111111-111111-11-10-10----------------------------------|
A|---------------------------------------------------------------------------|
E|---------------------------------------------------------------------------|

[Solo]
e|-------4---------4-6-4----------4------4-6-4-9~----------------------------|
B|---------6-------------7-6-4------6----------------------------------------|
G|18\--6-----------------------6---------------------------------------------|
D|---------------------------------------------------------------------------|
A|---------------------------------------------------------------------------|
E|---------------------------------------------------------------------------|

e|--------6---9----16----18----21~-------------------------------------------|
B|6---9-6---9---16----18----21-----------------------------------------------|
G|--6------------------------------------------------------------------------|
D|---------------------------------------------------------------------------|
A|---------------------------------------------------------------------------|
E|---------------------------------------------------------------------------|

e|11---11---13---13---14---14---16---16---16---16---16---16---16---16--------|
B|x----x----x----x----x----x----x----x----x----x----x----x----x----x---------|
G|14brb14brb16brb16brb17brb17brb19brb19brb19brb19brb19brb19brb19brb19brb-----|
D|---------------------------------------------------------------------------|
A|---------------------------------------------------------------------------|
E|---------------------------------------------------------------------------|

[Ending]
(2x)
e|--4---------4-6-4----------------------------------------------------------|
B|----6~------------7-6-4----------------------------------------------------|
G|6-----------------------6~-------------------------------------------------|
D|---------------------------------------------------------------------------|
A|---------------------------------------------------------------------------|
E|---------------------------------------------------------------------------|

e|11---11---13---13---14---14---16---16---16---16---16---16---16---16--------|
B|x----x----x----x----x----x----x----x----x----x----x----x----x----x---------|
G|14brb14brb16brb16brb17brb17brb19brb19brb19brb19brb19brb19brb19brb19brb-----|
D|---------------------------------------------------------------------------|
A|---------------------------------------------------------------------------|
E|---------------------------------------------------------------------------|


************************************

| x  Dead note
| ~  Vibrato
| \  Slide down 

************************************

            
            
Suggest correction
Creating personal tab
Creating personal tab
You can edit any tab online and save it as your Personal.

You can edit, replace or remove any tab part or add personal notes – all changes will be seen only by you.

Personal tabs can be accessed anytime from any device, even offline.
Learn more »
Give kudos to tab author, rate the tab!
1 2 3 4 5
comments
print report bad tab
guest
You may want to rate the tab now too:
select rating
Wanna post a correction for this tab? Suggest correction