Oops, an error
Loading. Please wait.

Shut Up And Dance tab

version 6
version 6

Whole song

  • This version is more organized and accurate than the other versions.
  • I have a full solo that I belive to be correct, an... Show more

Interactive

Video

3,043 views 33 this week
no commentswrite comment
1 2 3 4 5
2 more votes to show rating
add to favorites
×
Save as Personal and add changes to this tab that will be seen only by you. Learn more ›
×
You can save this tab as Personal to edit and correct it or add notes. All changes will be seen only by you. Learn more »
launch autoscroll
font size
0
reset
how to read this tab
guitar tuner
edit
Autoscroll
slow
fast
+/-
esc
set tempo
stop
Author
About this tab version
I have a full solo that I belive to be correct, and the other tabs have a few errors, like playing F# an octive too high and a few wrong notes here and there. Was this info helpful? Yes No
-------------------------------------------------------------------------------
                             Shut Up And Dance - Walk The Moon
-------------------------------------------------------------------------------
Tabbed by: Nathan Barnitz
E-mail: Barnitzn@gmail.com

There are a few tabs already out there, but I felt like none of them were 100% correct, and they didn't
have a good solo, so I went ahead and submitted my version of the song.
  ~Walk the Moon~
~Shut up and Dance~
intro
e|-------------------------------------------------------------
B|---------14---------14----------------14----------14---------
G|-----13----------13-------13------13----------13---------13--
D|--15---------16--------16-----15----------13----------13-----
A|-------------------------------------------------------------
E|-------------------------------------------------------------

Verse - Palm Mute
e|---4---4---4---4-4---4---4---4---4-4----
B|---6---6---6---6-6---6---6---6---6-6----
G|---6---6---6---6-6---6---6---6---6-6----
D|---6---6---6---6-6---6---6---6---6-6----
A|---4---4---4---4-4---4---4---4---4-4----
E|----------------------------------------

Prechorus
e|-------------------------------------------------------
B|-------------------------------------------------------
G|------------6-6----------------------------------------
D|-3--3/4--4--6-6--6-6-4-4--4--4/4--4--6-6-6-6-6-6-6-6---
A|-3--3/4--4--4-4--6-6-4-4--4--4/4--4--6-6-6-6-6-6-6-6---
E|-1--1/2--2-------4-4-2-2--1--1/2--2--4-4-4-4-4-4-4-4---


Chorus x2
e|----------------------------------------------------------
B|----------------------------------------------------------
G|--6-6-------------------------6-6-------------------------
D|--6-6--4-4--8-8-8-/4-4-4-4-4--6-6--4-4--8--8/6--6---------
A|--4-4--4-4--8-8-8-/4-4-4-4-4--4-4--4-4--8--8/6--6---------
E|-------2-2--6-6-6-/2-2-2-2-2-------2-2--6--6/4--4---------

Solo
e|-------------------------------------------9--------------
B|----9----9h11p9---------------9-----9h11p9----------------
G|------10--------11-10--8--------10~-----------------------
D|-11-----------------------11~-----------------------------
A|----------------------------------------------------------
E|----------------------------------------------------------

e|-----------------------------------13----16-13-18-21-----
B|-----------------------14----16-14----16-----------------
G|-----------13----15-13----15-----------------------------
D|----15--------15-----------------------------------------
A|-13----16------------------------------------------------
E|---------------------------------------------------------

e|-11--11--13--13--14--14--16-16-16-16----------------------
B|-15--15--17--17--18--18--20-20-20-20----------------------
G|----------------------------------------------------------
D|----------------------------------------------------------
A|----------------------------------------------------------
E|----------------------------------------------------------

Outro

e|---------------------------------
B|---------------------------------
G|-------6-6-----------------------
D|--8-8--6-6--4-4--6-6-6-6-6-6-----
A|--8-8--4-4--4-4--6-6-6-6-6-6-----
E|--6-6-------2-2--4-4-4-4-4-4-----

Intro 
Verse
Prechorus
Chorus
Verse
Prechorus
Chorus
Solo
Prechorus(Play the first part twice)
Intro (Cut it a note short last time you play it) x3
Chorus x2
Outro

A second Guitar plays through the Verse every time the Intro is being played.
A second Guitar also plays the first line of the solo twice after The final Chorus is played once







************************************

| /   slide up
| \   slide down
| h   hammer-on
| p   pull-off
| ~   vibrato
| +   harmonic
| x   Mute note
| b   Bend
| pb  Pre-bend
| br  Bend release
| pbr Pre-bend release
| brb Bend release bend

************************************

            
            
Suggest correction
Creating personal tab
Creating personal tab
You can edit any tab online and save it as your Personal.

You can edit, replace or remove any tab part or add personal notes – all changes will be seen only by you.

Personal tabs can be accessed anytime from any device, even offline.
Learn more »
Give kudos to tab author, rate the tab!
1 2 3 4 5
comments
print report bad tab
guest
You may want to rate the tab now too:
select rating
Wanna post a correction for this tab? Suggest correction