Oops, an error
Loading. Please wait.

Tightrope bass

version 1
version 1

Whole song

6,917 views 9 this week
3 commentsread comments
1 2 3 4 5
x 5
add to favorites
×
Save as Personal and add changes to this tab that will be seen only by you. Learn more ›
×
You can save this tab as Personal to edit and correct it or add notes. All changes will be seen only by you. Learn more »
launch autoscroll
font size
0
reset
guitar tuner
edit
Autoscroll
slow
fast
+/-
esc
set tempo
stop
-------------------------------------------------------------------------------
                             Tightrope - Walk the Moon
-------------------------------------------------------------------------------

It seems no one has put up any Walk the Moon bass tabs yet, so I thought I'd put this up.



Intro + First Verse
G|---------------11-------------|
D|--4444444444444--2222222222222|
A|------------------------------|
E|------------------------------|x8

Chorus
G|-------------------------------------------------|
D|--------------4-4-4-4-4-4-------------1-1-1-1-1-1|
A|--2-2-2-2-2-2------------------------------------|
E|--------------------------4-4-4-4-4-4------------|x4

2nd Verse
G|---------------11-------------|
D|--4444444444444--2222222222222|
A|------------------------------|
E|------------------------------|x8

Chorus
G|-------------------------------------------------|
D|--------------4-4-4-4-4-4-------------1-1-1-1-1-1|
A|--2-2-2-2-2-2------------------------------------|
E|--------------------------4-4-4-4-4-4-------------|x4

During the guitar solo, play this very quietly at the beginning of the solo:
|--------|
|--7/9\0-|
|--------|
|--------|

Last Verse:
G|---------------11-------------11-------------------------|
D|--4444444444444--2222222222222--1111111111112222222222222|
A|---------------------------------------------------------|
E|---------------------------------------------------------|x2

Final Chorus:
G|-------------------------------------------------|
D|--------------4-4-4-4-4-4-------------1-1-1-1-1-1|
A|--2-2-2-2-2-2------------------------------------|
E|--------------------------4-4-4-4-4-4------------|x4

|----------------------------------------------------------------------|
|-----------------------------------4-4-4-4-4-4-------------1-1-1-1-1-1|
|--3--7--5--3--0--2-----2-2-2-2-2-2-------------0-0-0-0-0-0------------|
|--------------------2-------------------------------------------------|x2



===============================================================================
Suggest correction
Creating personal tab
Creating personal tab
You can edit any tab online and save it as your Personal.

You can edit, replace or remove any tab part or add personal notes – all changes will be seen only by you.

Personal tabs can be accessed anytime from any device, even offline.
Learn more »
comments
print report bad tab
3 comments total.
0 reply
flymaya2014 31 Nov 23, 2012 11:43 AM

Verse:

G|----------------11--------------|
D|--4444444444444--2222222222222|
A|---------------------------------|
E|---------------------------------|

Chorus
G|---------------------------------------------------|
D|--------------4-4-4-4-4-4--------------------------|
A|--2-2-2-2-2-2--------------------------6-6-6-6-6-6|
E|---------------------------4-4-4-4-4-4-------------|

-1 reply
Mrjayyful 31 Apr 23, 2013 11:51 AM

Guarantee 100% Correct

Verse:
G|-------------------------------------|
D|-------------------------------------|
A|--9999999999999999-7777777777777777--|
E|-------------------------------------|

Chorus:
G|-----------------------------------------------------|
D|-----------------------------------------------------|
A|---------------9-9-9-9-9-9--------------6-6-6-6-6-6--|
E|--7-7-7-7-7-7--------------4-4-4-4-4-4---------------|

+1 reply
OhMyPancakes 10 Jul 10, 2013 11:55 PM

The people who wrote comments all you did was tab out the exact same thing at a different spot on the fretboard.

None of the notes are different so it's really just personal preference about where someone wants to put their hand.

guest
You may want to rate the tab now too:
select rating
Wanna post a correction for this tab? Suggest correction