Oops, an error
Loading. Please wait.

Tightrope Bass Tab

version 2
version 2

Whole song

633 views 3 this week
1 commentread comment
1 2 3 4 5
3 more votes to show rating
add to favorites
launch autoscroll
font size
0
reset
guitar tuner
Autoscroll
slow
fast
+/-
esc
set tempo
stop
Help us to improve Ultimate-Guitar.com Take our survey!
×
Difficulty
novice
Intro + First Verse
G|-------------------------------------|
D|-------------------------------------|
A|9-9-9-9-9-9-9----11--11---7-7-7-7-7-7|
E|-------------------------------------|x8

Chorus
G|---------------------------------------------------|
D|--------------4-4-4-4-4-4--------------------------|
A|--2-2-2-2-2-2--------------------------6-6-6-6-6-6-|
E|---------------------------4-4-4-4-4-4-------------|

The whole song.
Suggest correction
Give kudos to tab author, rate the tab!
1 2 3 4 5
comments
print report bad tab
1 comment total.
0 reply
platypusbass 10 Apr 03, 2013 08:22 PM

This is great! More walk the moon tabs would be appreciated!

guest
You may want to rate the tab now too:
select rating
Wanna post a correction for this tab? Suggest correction