Oops, an error
Loading. Please wait.

Perfetto chords

61 views 1 this week
no commentswrite comment
1 2 3 4 5
3 more votes to show rating
add to favorites
×
Save as Personal and add changes to this tab that will be seen only by you. Learn more ›
×
You can save this tab as Personal to edit and correct it or add notes. All changes will be seen only by you. Learn more »
launch autoscroll
font size
0
reset
transpose
0
reset
display chords
guitar tuner
edit
Autoscroll
slow
fast
+/-
esc
set tempo
stop
Strumming
There is no strumming pattern for this song yet. and get +5 IQ
PERFETTO ft.J.Sheeran

NO CAPO

[Intro]

(C     G   D  Em)


[Verse]

C              G     D             Em
Quando tutto è perfetto io non lo sono mai

C              G      D               G
mantengo le distanze da ciò che mi fa stare bene

C              G     D             Em
le scale per il paradiso le ho perse già da tempo

C              G      D               G
ma i gradini per l’inferno sono sempre qui con me.

C              G     D             Em
Perché nonostante tutto io ripenso a noi due

C              G      D               G
noi due distesi al buio per proteggerci dal mondo

C              G     D             Em
Questa stanza è così vuota, è il tuo abbraccio che mi manca

C              G      D               G
ma da solo contro il vento, ora voglio dirti che..


[Chorus]

C              G     D             Em
ANCHE SE IL CUORE HA SPESO TROPPO NON RIMPIANGO NIENTE

C              G      D               G
QUELLO CHE SONO LO DEVO PURE A TE

C              G     D             Em
E GUARDO QUESTE MIE FERITE CHE HO QUI SUL MIO CORPO

C              G      D               G
LE MOSTERO’ AL PARTY DEL MIO ADDIO


[Verse]

C              G     D             Em
Sometimes its hard to go on, I'm falling down slipping, remeniscing, tripping and
falling , looking to the skies,

C              G      D               G
arms wide, eyes blurry, tears pouring down, thinking of you but its got my head spinning
these times so blue,

C              G     D             Em
its so hard to shine light into corners (dark corners) takin a piece of your soul

C              G      D               G
i try and stop the devil taking control, my mind thoughts di- straught, i gotta get up
and shake it off

C              G     D             Em
Perché nonostante tutto io ripenso a noi due

C              G      D               G
life is worth the living , trying make it better for myself and if i miss you i miss you
and then ill see you on the other side

C              G     D             Em
Questa casa è così vuota, è il tuo abbraccio che mi manca

C              G      D               G
looking to the skies arms wide, eyes blurry, tears pouring down, thinking of you,
thinking of you...


[Chorus]

C              G     D             Em
ANCHE SE IL CUORE HA SPESO TROPPO NON RIMPIANGO NIENTE

D         G      D         G
QUELLO CHE SONO LO DEVO PURE A TE

C              G     D             Em
E GUARDO QUESTE MIE FERITE CHE HO QUI SUL MIO CORPO

D         G      D         G
LE MOSTERO’ AL PARTY DEL MIO ADDIO

G

life is worth the living , trying make it better for myself and if i miss you i miss you
and then ill see you on the other side


[Solo]

C  G  D  Em, C  G  D G


[Stave 1]

E|----------------------12--12--12--12--12--15----------15--------------------------------------|
B|--------------12--15--------------------------15--15------15--12----------------------15------|
G|------12--14------------------------------------------------------14--14--14--14--14------12--|
D|--14------------------------------------------------------------------------------------------|
A|----------------------------------------------------------------------------------------------|
E|----------------------------------------------------------------------------------------------|


[Stave 2]

E|----------------------12--12--12--12--12--15-----------------------------------|
B|--------------12--15--------------------------15--15--12-----------------------|
G|------12--14----------------------------------------------14--14--14-/-16--12--|
D|--14---------------------------------------------------------------------------|
A|-------------------------------------------------------------------------------|
E|-------------------------------------------------------------------------------|


[Chorus]

D                A               Em                F#
ANCHE SE IL CUORE HA SPESO TROPPO NON RIMPIANGO NIENTE

D         A      Em           A
QUELLO CHE SONO LO DEVO PURE A TE

D                A               Em                  F#
E GUARDO QUESTE MIE FERITE CHE HO QUI SUL MIO CORPO

D         A      Em           A
LE MOSTERO’ AL PARTY DEL MIO ADDIO

            
            
Suggest correction
Creating personal tab
Creating personal tab
You can edit any tab online and save it as your Personal.

You can edit, replace or remove any tab part or add personal notes – all changes will be seen only by you.

Personal tabs can be accessed anytime from any device, even offline.
Learn more »
Give kudos to tab author, rate the tab!
1 2 3 4 5
comments
print report bad tab
guest
You may want to rate the tab now too:
select rating
Wanna post a correction for this tab? Suggest correction