Oops, an error
Loading. Please wait.

Lets Get Breakfast tab

version 1
version 1

Whole song

  • This tab is an exact transcription of the artist's... Show more
46 views 6 this week
no commentswrite comment
1 2 3 4 5
3 more votes to show rating
add to favorites
×
Save as Personal and add changes to this tab that will be seen only by you. Learn more ›
×
You can save this tab as Personal to edit and correct it or add notes. All changes will be seen only by you. Learn more »
launch autoscroll
font size
0
reset
how to read this tab
guitar tuner
edit
Autoscroll
slow
fast
+/-
esc
set tempo
stop
About this tab version
This tab is an exact transcription of the artist's official recording (taken from Spotify). Was this info helpful? Yes No
[Intro]
e|----------------------------------------------------------------|
B|--------------------------------2--2--2-------------------------|
G|1--1--1---------4--4--4---------2--2--2---------4--4--4---------|
D|2--2--2---------1--1--1---------2--2--2---------2--2--2---------|
A|--------------------------------0--0--0-------------------------|
E|----------------------------------------------------------------|

e|----------------------------------------------------------------|
B|--------------------------------2--2--2---------4--4--4---------|
G|--------------------------------2--2--2---------4--4--4---------|
D|6--6--6---------4--4--4---------2--2--2---------4--4--4---------|
A|4--4--4---------1--1--1---------0--0--0---------2--2--2---------|
E|----------------------------------------------------------------|

[Verse]
e|----------------------------------------------------------------|
B|--------------------------------2--2--2-------------------------|
G|1--1--1---------4--4--4---------2--2--2---------4--4--4---------|
D|2--2--2---------1--1--1---------2--2--2---------2--2--2---------|
A|--------------------------------0--0--0-------------------------|
E|----------------------------------------------------------------|
          Long drive...

e|----------------------------------------------------------------|
B|--------------------------------2--2--2---------4--4--4---------|
G|--------------------------------2--2--2---------4--4--4---------|
D|6--6--6---------4--4--4---------2--2--2---------4--4--4---------|
A|4--4--4---------1--1--1---------0--0--0---------2--2--2---------|
E|----------------------------------------------------------------|
          Let's get...

e|----------------------------------------------------------------|
B|--------------------------------2--2--2-------------------------|
G|1--1--1---------4--4--4---------2--2--2---------4--4--4---------|
D|2--2--2---------1--1--1---------2--2--2---------2--2--2---------|
A|--------------------------------0--0--0-------------------------|
E|----------------------------------------------------------------|
          Text threats...

e|----------------------------------------------------------------|
B|--------------------------------2--2--2---------4--4--4---------|
G|--------------------------------2--2--2---------4--4--4---------|
D|6--6--6---------4--4--4---------2--2--2---------4--4--4---------|
A|4--4--4---------1--1--1---------0--0--0---------2--2--2---------|
E|----------------------------------------------------------------|
        But ghost eyes...

[Interlude]
e|----------------------------------------------------------------|
B|--------------------------------2--2--2-------------------------|
G|1--1--1---------4--4--4---------2--2--2---------4--4--4---------|
D|2--2--2---------1--1--1---------2--2--2---------2--2--2---------|
A|--------------------------------0--0--0-------------------------|
E|----------------------------------------------------------------|

e|----------------------------------------------------------------|
B|--------------------------------2--2--2---------4--4--4---------|
G|--------------------------------2--2--2---------4--4--4---------|
D|6--6--6---------4--4--4---------2--2--2---------4--4--4---------|
A|4--4--4---------1--1--1---------0--0--0---------2--2--2---------|
E|----------------------------------------------------------------|

[Verse]
e|----------------------------------------------------------------|
B|--------------------------------2--2--2-------------------------|
G|1--1--1---------4--4--4---------2--2--2---------4--4--4---------|
D|2--2--2---------1--1--1---------2--2--2---------2--2--2---------|
A|--------------------------------0--0--0-------------------------|
E|----------------------------------------------------------------|
          Brave the handshake...

e|----------------------------------------------------------------|
B|--------------------------------2--2--2---------4--4--4---------|
G|--------------------------------2--2--2---------4--4--4---------|
D|6--6--6---------4--4--4---------2--2--2---------4--4--4---------|
A|4--4--4---------1--1--1---------0--0--0---------2--2--2---------|
E|----------------------------------------------------------------|
        I'm getting good at...

e|----------------------------------------------------------------|
B|--------------------------------2--2--2-------------------------|
G|1--1--1---------4--4--4---------2--2--2---------4--4--4---------|
D|2--2--2---------1--1--1---------2--2--2---------2--2--2---------|
A|--------------------------------0--0--0-------------------------|
E|----------------------------------------------------------------|
        Borrowed my best thoughts...

e|----------------------------------------------------------------|
B|--------------------------------2--2--2---------4--4--4---------|
G|--------------------------------2--2--2---------4--4--4---------|
D|6--6--6---------4--4--4---------2--2--2---------4--4--4---------|
A|4--4--4---------1--1--1---------0--0--0---------2--2--2---------|
E|----------------------------------------------------------------|
        Let's just get...

e|----------------------------------------------------------------|
B|(0)-------------------------------------------------------------|
G|----------------------------------------------------------------|
D|-2--------------------------------------------------------------|
A|-2--------------------------------------------------------------|
E|----------------------------------------------------------------|



************************************

| (n)  Ghost note

************************************

            
            
Suggest correction
Creating personal tab
Creating personal tab
You can edit any tab online and save it as your Personal.

You can edit, replace or remove any tab part or add personal notes – all changes will be seen only by you.

Personal tabs can be accessed anytime from any device, even offline.
Learn more »
Give kudos to tab author, rate the tab!
1 2 3 4 5
comments
print report bad tab
guest
You may want to rate the tab now too:
select rating
Wanna post a correction for this tab? Suggest correction