Oops, an error
Loading. Please wait.
58 views 3 this week
no commentswrite comment
1 2 3 4 5
3 more votes to show rating
add to favorites
×
Save as Personal and add changes to this tab that will be seen only by you. Learn more ›
×
You can save this tab as Personal to edit and correct it or add notes. All changes will be seen only by you. Learn more »
launch autoscroll
font size
0
reset
transpose
0
reset
display chords
guitar tuner
edit
Autoscroll
slow
fast
+/-
esc
set tempo
stop
Strumming
There is no strumming pattern for this song yet. and get +5 IQ
Tuning: Standard

Not sure what that instrument is with tons of reverb they use during the solo...
I know they use a kazoo sometimes in their music. So I call it the "kazoo". But play it however
you want. Theres some guitar parts towards the end where they use a ton of FX... figure it out :p

[Intro]
E

[Verse]
E
They found me lost, but not panicked
E                                   A
Floating belly up in a pool of disenchantment
E
I could only shrug, nothing to tell 'em
E
The truth is corny and too hollow to sink with
A
I'm completely opinionless
E
Darling I'm better now
E
think things have finally settled down
E
and something about the weather has me
E                        A
pleasantly curled up and lonely
             E
So I welcome all the rain as sedatives for me to dull down anything left of the
A                              E
grandiose visions I drag around
A                                              E
Must be the guilt from the privilege I was born
           A                    B                   E
and why my favorite songs don't sound great anymore.

[Solo]
E - A (repeat)

(This is the weird kazoo part)
e|---------------------------------------------------------------|
B|---------------------------------------------------------------|
G|----4--4--2--1-------4--4--6--4--2--1--------------------------|
D|--------------------------------------4-2----------------------|
A|---------------------------------------------------------------|
E|---------------------------------------------------------------|

e|---------------------------------------------------------------|
B|---------------------------------------------------------------|
G|----1-2-4--1-2-4--1-2-4----------------------------------------|
D|------------------------------------------1-2-4---2-4--6-------|
A|---------------------------------------------------------------|
E|---------------------------------------------------------------|

[Outro]
E (repeat)
(Kazoo/horn thing part)
e|------------------0--------------------------------------------|
B|----2-----------0----------------------------------------------|
G|------4-1-----1------------------------------------------------|
D|---------------------------------------------------------------|
A|---------------------------------------------------------------|
E|---------------------------------------------------------------|

            
            
Suggest correction
Creating personal tab
Creating personal tab
You can edit any tab online and save it as your Personal.

You can edit, replace or remove any tab part or add personal notes – all changes will be seen only by you.

Personal tabs can be accessed anytime from any device, even offline.
Learn more »
Give kudos to tab author, rate the tab!
1 2 3 4 5
comments
print report bad tab
guest
You may want to rate the tab now too:
select rating
Wanna post a correction for this tab? Suggest correction