Oops, an error
Loading. Please wait.

So Nice Summer Samba tab

613 views 15 this week
no commentswrite comment
1 2 3 4 5
2 more votes to show rating
add to favorites
×
Save as Personal and add changes to this tab that will be seen only by you. Learn more ›
×
You can save this tab as Personal to edit and correct it or add notes. All changes will be seen only by you. Learn more »
launch autoscroll
font size
0
reset
how to read this tab
guitar tuner
edit
Autoscroll
slow
fast
+/-
esc
set tempo
stop
Author
Difficulty
This is the basic tab for the chords and melody for Summer Samba, So Nice in the style of Brazilian organist
Walter Wanderley, who made the tune popular in the mid 1960s.

To get the right tone for the chords, this is the chord tab:
  Cmaj7   Gbm7b5     B7     Fmaj7     Fm7    Bb9   Em7   E7b9   Dm7   D13  G#7  G13 C6/9  F13   G7b13
e  0        x         x      0         1      1     x     6      5     7    x    x   3     x     x
B  0        1         x      1         1      1     8     6      6     7    4    5   3     3     4
G  0        2         2      2         1      1     7     7      5     5    5    4   2     2     4
D  2        2         1      3         1      0     9     6      7     0    6    3   2     1     3
A  3        x         2      x         3      1     7     7      5     x    x    x   3     x     x
E  x        2         x      1         1      1     x     x      x     5    4    3   3     1     3

  Cmaj7            Cmaj7            Gbm7b5           B7
e|----------------|----------------|----------------|---------------|
B|-------0--------|--------0-------|--------0-------|--------0------|
G|---0-2----3--2--|----0-2----3--2-|----0-2----3-2--|----0-2----3-2-|
D|-2--------------|--2-------------|--2-------------|--1------------|
A|----------------|----------------|----------------|---------------|
E|----------------|----------------|----------------|---------------|

  Fmaj7            Fmaj7            Fm7              Bb9
e|------0---------|--------0-------|--------0-------|--------0------|
B|---1-3---4--3---|---1-3-----4-3--|---1-3-----4-3--|---1-3-----4-3-|
G|-2--------------|-2--------------|-2--------------|--1------------|
D|----------------|----------------|----------------|---------------|
A|----------------|----------------|----------------|---------------|
E|----------------|----------------|----------------|---------------|

  Em7              E7b9            Dm7               Bb9
e|----------------|--6--5----------|----------------|---------------|
B|--8-------------|-------8--6-----|--5-------------|------8-7-6-5--|
G|----------------|----------------|----------------|---------------|
D|----------------|----------------|----------------|---------------|
A|----------10----|----------------|----------------|---------------|
E|----------------|----------------|----------------|---------------|

  Em7              D13              Dm7              G#7     G13
e|----------------|----------------|----------------|---------------|
B|----------------|-7-6-5----------|----------------|-4--------3----|
G|--7-------------|---------7------|-5---5---5---5--|----5----------|
D|----------------|----------------|---7---7---7---7|---------------|
A|----------------i----------------|----------------|---------------|
E|----------------|----------------|----------------|---------------|

  Cmaj7            Cmaj7            Gbm7b5           B7
e|----------------|----------------|----------------|----------------|
B|--------0-------|--------0-------|--------0-------|--------0-------|
G|---0-2-----3-2--|---0-2------3-2-|---0-2------3-2-|---0-2-----3-2--|
D|-2--------------|-2--------------|-2--------------|-1--------------|
A|----------------|----------------|----------------|----------------|
E|----------------|----------------|----------------|----------------|

  Fmaj7            Fmaj7            Fm7              Bb9
e|--------0-------|--------0-------|--------0-------|--------0-------|
B|----1-3----4-3--|----1-3-----4-3-|---1-3-----4-3--|---1-3-----4-3--|
G|-2--------------|-2--------------|-2--------------|-1--------------|
D|----------------|----------------|----------------|----------------|
A|----------------|----------------|----------------|----------------|
E|----------------|----------------|----------------|----------------|

  Em7              E7b9             Dm7              G13
e|----------------|--6-5-----------|----------------|----------------|
B|--8-------------|--------8---6---|---5------------|------8-7-6-5---|
G|----------------|----------------|----------------|----------------|
D|----------------|----------------|----------------|----------------|
A|----------10----|----------------|----------------|----------------|
E|----------------|----------------|----------------|----------------|

  C6/9             F13              C6/9             G7b13
e|----------------|----------------|----------------|----------------|
B|--3--3-2-1--1-2-|-3--3-2-1-1-2---|----3-----------|---4-4----------|
G|----------------|----------------|----------------|----------------|
D|----------------|----------------|----------------|----------------|
A|----------------|----------------|----------------|----------------|
E|----------------|----------------|----------------|----------------|

            
            
Suggest correction
Creating personal tab
Creating personal tab
You can edit any tab online and save it as your Personal.

You can edit, replace or remove any tab part or add personal notes – all changes will be seen only by you.

Personal tabs can be accessed anytime from any device, even offline.
Learn more »
Give kudos to tab author, rate the tab!
1 2 3 4 5
comments
print report bad tab
guest
You may want to rate the tab now too:
select rating
Wanna post a correction for this tab? Suggest correction