Oops, an error
Loading. Please wait.

1000 Days chords

by Wand
664 views 1 this week
1 commentread comment
1 2 3 4 5
x 3
add to favorites
×
Save as Personal and add changes to this tab that will be seen only by you. Learn more ›
×
You can save this tab as Personal to edit and correct it or add notes. All changes will be seen only by you. Learn more »
launch autoscroll
font size
0
reset
transpose
0
reset
display chords
guitar tuner
edit
Autoscroll
slow
fast
+/-
esc
set tempo
stop
Author
Difficulty
Strumming
There is no strumming pattern for this song yet. and get +5 IQ
[Intro]

E|--------------------------------------------------|
B|--------------------------------------------------|
G|--------------------------------------------------|
D|--------------------------------------------------|
A|--------------0--2--4--5--4--2--0-----0-----------|
E|--3--0--2--3-----------------------3-----3--2--0--|

Chords during that part

G D A


[Verse]

A              G
Cement boy and cement girl
A                    G       D
Walking alone in the sunlight
A              G
Watching me i'm watching you
A                  G   D 
1000 days how they fly by


[Chorus]

D                                   A     G
I don't need a thing cause i've had every dream
D              Bm                   A         
I don't need a thing cause i've had every dream


[Verse]

A             G
Sleeping on a cement bed
A                       G     D
Waking at night full of terror
A          G
Daytime is haunting you
A              G       D
Nightime is nothing at all


[Chorus]

D                                   A     G
I don't need a thing cause i've had every dream
D              Bm                   A     G
I don't need a thing cause i've had every dream
D                                   A     G
I don't need a thing cause i've had every dream
D              Bm                   A             
I don't need a thing cause i've had every dream 


[Outro]

E|-------------------------------------------------------------------|
B|-------------------------------------------------------------------|
G|-------------------------------------------------------------------|
D|-----------------------------------2--2h4p2------------------------|
A|-----------0--2-----2--4--5-----5------------5--4-----4h5p4--2--0--|
E|--3--2--3----------------------------------------------------------|

Chords during that part

G D A

            
            
Suggest correction
Creating personal tab
Creating personal tab
You can edit any tab online and save it as your Personal.

You can edit, replace or remove any tab part or add personal notes – all changes will be seen only by you.

Personal tabs can be accessed anytime from any device, even offline.
Learn more »
Give kudos to tab author, rate the tab!
1 2 3 4 5
comments
print report bad tab
1 comment total.
0 reply
calumgingram 10 Jun 29, 2017 05:55 PM

great job

guest
You may want to rate the tab now too:
select rating
Wanna post a correction for this tab? Suggest correction