Oops, an error
Loading. Please wait.

Cant Take Another Day chords

16 views 1 this week
no commentswrite comment
1 2 3 4 5
3 more votes to show rating
add to favorites
×
Save as Personal and add changes to this tab that will be seen only by you. Learn more ›
×
You can save this tab as Personal to edit and correct it or add notes. All changes will be seen only by you. Learn more »
launch autoscroll
font size
0
reset
transpose
0
reset
display chords
guitar tuner
edit
Autoscroll
slow
fast
+/-
esc
set tempo
stop
Author
Difficulty
Strumming
There is no strumming pattern for this song yet. and get +5 IQ
Chords
C: x32010
Am: x02310
F: 133211
G: 355433

Where *, pull off and hammer on index finger.

[Intro]

  C             Am                F                  G
e|---0-----0-------0-------0---------1-------1----------3-------3----------|
B|----1-----1-------1-------1---------1-------1----------3-------3---------|
G|-------------------------------------------------------------------------|
D|-------------------------------------------------------------------------|
A|-3-----3-------0-------0-------------------------------------------------|
E|---------------------------------1-------1----------3-------3------------|

  C             Am                F                  G
e|---0-----0-------0-------0---------1-------1----------3-------3----------|
B|----1-----1-------1-------1---------1-------1----------------------------|
G|-------------------------------------------------------4-------4---------|
D|-------------------------------------------------------------------------|
A|-3-----3-------0-------0-------------------------------------------------|
E|---------------------------------1-------1----------3-------3------------|

C-Am-F-G

[Verse]
            C         Am
It's been a long day, without your face,
F                     G
   I think I might just cry.
C               Am
Since you came, I couldn't look away
F                            G
   You gave my heart so much pride


[Chorus]

C*            Am*
I can't take, another day,
F                   G
  without you by my side.
C*              Am*
You're my life, I'd sacrifice,
F                     G
  Everything for that smile.


[Instrumental]

 C-Am-F-G


[Verse]

C          Am
Somewhere, waiting,
F                                G
   My heart can't take this pain no more.
C        Am
Someday, we'll be okay,
F                     G
   Darlin I just want you to know.


[Chorus]

C*            Am*
I can't take, another day,
F                   G
  without you by my side.
C*              Am*
You're my life, I'd sacrifice,
F                     G
  Everything for that smile.


[Ending Chorus]

C             Am
I can't take, another day
F                   G
Another day without you.
C             Am
I can't take, another day,
F                   G
Another day without you.


[Chorus]

C*            Am*
I can't take, another day,
F                   G
  without you by my side.
C*              Am*
You're my life, I'd sacrifice,
F                     G
  Everything for that smile.


[Outro]

  C             Am                F                  G                 C
e|---0-----0-------0-------0---------1-------1----------3-------3-------0--|
B|----1-----1-------1-------1---------1-------1-------------------------1--|
G|-------------------------------------------------------4-------4------0--|
D|----------------------------------------------------------------------2--|
A|-3-----3-------0-------0----------------------------------------------3--|
E|---------------------------------1-------1----------3-------3------------| 
Suggest correction
Creating personal tab
Creating personal tab
You can edit any tab online and save it as your Personal.

You can edit, replace or remove any tab part or add personal notes – all changes will be seen only by you.

Personal tabs can be accessed anytime from any device, even offline.
Learn more »
Give kudos to tab author, rate the tab!
1 2 3 4 5
comments
print report bad tab
guest
You may want to rate the tab now too:
select rating
Wanna post a correction for this tab? Suggest correction