Oops, an error
Loading. Please wait.

Dance Hall Days Bass Tab

version 1
version 1

Whole song

Interactive

4,779 views 3 this week
no commentswrite comment
1 2 3 4 5
accurate
x 3
add to favorites
launch autoscroll
font size
0
reset
guitar tuner
Autoscroll
slow
fast
+/-
esc
set tempo
stop
Help us to improve Ultimate-Guitar.com Take our survey!
×
Author
Difficulty
intermediate
cool song by Wang Chung.

Bassist: Nick Feldman

g------------|
d----3-------|
a-------3----|   those are the root notes of the song.
e----------3-|


main verse:


g--------------------------|
d----2-3-------------------|
a--------2-3-----------2-3-|
e------------2-3---1-3-----|

variation 2:

g-------------------------|
d----2-3------------------|
a--------2-3--------------|
e------------2-3----0-1-3-|


chorus:

g--------------------------|
d--------------------------|
a----8--7--6--5------0-2-3-|
e----------------1-0-------|
Suggest correction
Give kudos to tab author, rate the tab!
1 2 3 4 5
comments
print report bad tab
guest
You may want to rate the tab now too:
select rating
Wanna post a correction for this tab? Suggest correction