Oops, an error
Loading. Please wait.

One Day tab

64,521 views 3 this week
1 commentread comment
1 2 3 4 5
x 5
add to favorites
×
Save as Personal and add changes to this tab that will be seen only by you. Learn more ›
×
You can save this tab as Personal to edit and correct it or add notes. All changes will be seen only by you. Learn more »
launch autoscroll
font size
0
reset
how to read this tab
guitar tuner
edit
Autoscroll
slow
fast
+/-
esc
set tempo
stop
Capo 1st fret



-------------------------------|
--------3----------0------3----|
-----------2-------2---------2-|
--0--------------------0-------|
----------------3--------------|
-------------------------------| x3

-----------------------------|
-----------------------------|
----2223322-----222----222---|
--0-----------3-----2--------|
-----------------------------|
-----------------------------|

-----------------------------|
-----------------------------|
----2223322----2-2-2-2-------|
--0-----------3-2-3-2--------|
-----------------------------|
-----------------------------|

Strum Dm

-----------------             ---------------|
-----------------             ---------------|
----2223322------             -----2-2-2-2---|
--0--------------    x7       ----3-2-3-2----|    x1
-----------------             ---------------|
-----------------             ---------------|

It's something like this through the whole song.. Breaks Dm and F

Dm           F            C           Bb
---1-1-1-1--I---1-1-1-1--I---0-0-0-0--I---1-1-1-1---|I
---3-3-3-2--I---1-1-1-1--I---1-1-1-1--I---3-3-3-3---|I
---2-2-2-3--I---2-2-2-2--I---0-0-0-0--I---3-3-3-3---|I
----0---0---I------------I----2---2---I----3---3----|I
--0---0-----I----1---1---I--3---3-----I--1---1------|I
------------I--1---1-----I------------I-------------|I

No more tears, my heart is dry
I don't laugh and I don't cry
I don't think about you all the time
But when I do I wonder why

You have to go out of my door
And leave just like you did before
I know I said that I was sure
But rich men can't imagine poor.

One day baby, we'll be old
Oh baby, we'll be old
And think of all the stories that we could have told

Little me and little you
Kept doing all the things they do
They never really think it through
Like I can never think you're true

Here I go again the blame
The guilt, the pain, the hurt, the shame
The founding fathers of our plane
That's stuck in heavy clouds of rain.

One day baby, we'll be old
Oh baby, we'll be old
And think of all the stories that we could have told.



Have fun!
Nurri23




http://www.wankelmut.com/
Suggest correction
Creating personal tab
Creating personal tab
You can edit any tab online and save it as your Personal.

You can edit, replace or remove any tab part or add personal notes – all changes will be seen only by you.

Personal tabs can be accessed anytime from any device, even offline.
Learn more »
comments
print report bad tab
1 comment total.
0 reply
Jarom!r 223 Sep 16, 2012 06:07 PM

You did a good job dude, but the capo in on the 2nd fret.

Who else recognized the theme from Amelie? :D

guest
You may want to rate the tab now too:
select rating
Wanna post a correction for this tab? Suggest correction