Oops, an error
Loading. Please wait.

Low Rider Bass Tab

version 1
version 1

Whole song

Interactive

by War
84,101 views 147 this week
10 commentsread comments
1 2 3 4 5
accurate
x 42
add to favorites
launch autoscroll
font size
0
reset
guitar tuner
Autoscroll
slow
fast
+/-
esc
set tempo
stop
Help us to improve Ultimate-Guitar.com Take our survey!
×
Author
Tabbers playing skills
beginner ++
"Low Rider" by War
Bass part by Francisco "Poncho" Tomaselli (War)
Tabbed by Dan Bogosian (UtBDan)
Visit UtBDan's band at:
http://www.geocities.com/underthbed/

Strike of the cowbell, then:

G|---------------------|
D|-------------3--5353-|
A|------1-3--5---------|
E|-1-3-----------------|

G|-------------------35-|
D|-------------3--535---|
A|------1-3--5----------|
E|-1-3------------------|
 
G|----------------------|
D|-------------3--53575-|
A|------1-3--5----------|
E|-1-3------------------|

It plays all these riffs, and as far as I can tell there is no real pattern.

This is far more accurate than any other version up.
Suggest correction
comments
print report bad tab
10 comments total. Showing first comments.
-1 reply
googleberg 31 wrote on December 19 2007, 05:12 pm

pretty much right but im pretty sure that its 03535 not 5353
and at the end of the second one its
---35
035--
and i
cant hear the 3rd one...
but generally good
4* rating

+14 reply
beargrylls 10 wrote on February 16 2008, 02:26 am

its


G--------------------------|
D--------------3---3h5-3h5-|
A------1--3--5---5---------|
E-1-3----------------------|

+1 reply
scootlaundry 113 wrote on July 15 2008, 11:08 am

i agree with wut beargrylls said

guest
You may want to rate the tab now too:
select rating
Please do not post tabs as comments. Select "correction" instead!