Oops, an error
Loading. Please wait.

El Más Triste Adiós Tab

version 1
version 1

Intro

Whole song

Interactive

18,051 views 3 this week
no commentswrite comment
1 2 3 4 5
1 last vote to show rating
add to favorites
launch autoscroll
font size
0
reset
how to read this tab
guitar tuner
Autoscroll
slow
fast
+/-
esc
set tempo
stop
Help us to improve Ultimate-Guitar.com Take our survey!
×
Author
I hope everyone likes it, it took quite some time to find this out..
Enjoy,, I will try and find about the Solo :)

Have a nice day Everyone..!!

|-0-----7------------------8--7---------------------------------------------------------|
|-------------5---7--7-------------7---------8----10--12---8----------------------------|
|----------------------------------------7----------------------------7-----------------|
|-------------------------------------------7----------------------------7--------------|
|---------------------------------------------------------------------------------------|
|-0-------------------------------------------------------------------------------------|

|--------------------------------------7---------------8--7------------------------------------|
|--------------------------7----5---------5--7--7----------7-------8---10--12---8--------------|
|---------5---------7-------------------------------------------7-----------------------7------|
|------5---------7-------------------------------------------------7------------------------7--|
|---5---------7--------------------------------------------------------------------------------|
|----------------------------------------------------------------------------------------------|

|--10---------8----------0----7--------------------8--7---------------------------|
|------10--------8------------------5----7---7------------7--------8---10--12---8-|
|-----------9--------7------------------------------------------7-----------------|
|-------------------------------------------------------------------7-------------|
|---------------------------------------------------------------------------------|
|--------------------------0------------------------------------------------------|

-----------------------|
---------------5---7---|
--------7-----------5--|
------------7-----5----|
----------------7------|
-----------------------|

|---------------------------------|
|---------------------------------|
|---------------------------------|
|---12--11--10--9-----------------|
|-------------------------11---9--|
|---------------------------------|

|----------------------------------------------------------------|
|------------7--------------------------------------------7------|
|---9--5----------5--7--9--7--7--5--4-----9---5--------9-9--7-7--|
|----------------------------------------------------------------|
|----------------------------------------------------------------|
|----------------------------------------------------------------|

|---------------------------------------------------------------------------------|
|----------7----------------------------------------------------------------------|
|--9--5-----------5--7--9--7--7--5--4-----5--7---9-9--11--12---11--9--11--9--11b--|
|---------------------------------------------------------------------------------|
|---------------------------------------------------------------------------------|
|---------------------------------------------------------------------------------|
Suggest correction
Give kudos to tab author, rate the tab!
1 2 3 4 5
comments
print report bad tab
guest
You may want to rate the tab now too:
select rating
Wanna post a correction for this tab? Suggest correction