Oops, an error
Loading. Please wait.

Como No Te Voy A Querer tab

by Wari
52 views 1 this week
no commentswrite comment
1 2 3 4 5
3 more votes to show rating
add to favorites
×
Save as Personal and add changes to this tab that will be seen only by you. Learn more ›
×
You can save this tab as Personal to edit and correct it or add notes. All changes will be seen only by you. Learn more »
launch autoscroll
font size
0
reset
how to read this tab
guitar tuner
edit
Autoscroll
slow
fast
+/-
esc
set tempo
stop
HOLA QUE TAL AQUI LES DEJO EL INTRO, COMOM VI QUE NO LA HABIAN PUESTO,
DECIDI PONERLA
ESTA MUY FACIL DE SACAR.

PARA ESTE INTRO SE LO TOCA EN LAS NOTAS:SIm y laM


                                --SIm--
e|-------------2-2-2.-2---------------------------------------------------|
B|----2-3-5.------------5-3\5\3-2.--2-2-2.-2------------------2h3---------|
G|--4-4-4------------------------------------4-2/4/2-2--2----4---4--------|X2
D|--4--------------------------------------------------4----4-----4-------|
A|-2---------5---------------------------------------------2--------------|
E|---------------------------------5--------------------------------------|

       SIm            LA
e|---------------------0---------2-2/5-2-0----------------------|
B|----2-2/3-2-----------2------2-2-2/2-2-2------2h3-------------|
G|--4-4-4/4-4-4------2---2---------------------4---4------------|X2
D|--4---------4-----2-----2-------------------4-----4-----------|
A|-2---------------0---------0---------------2------------------|
E|--------------------------------------------------------------|

ESTA PARTE ES EL ACOMPAÑAMIENTO DEL CHARANGO

      x2       x2        x2
     SIm      FA#m      RE       RE  LA   SOL
e|----2----------2---------2-----|------------3---3---------|
B|---3-3--------2-2-------3-3----|---3---2---3-3--3---------|
G|--4---4------2---2-----2---2---|--2---2---0---0-0---------|
D|----------------------0--------|-0--------------0---------|
A|-2-----------------------------|-----0----------2---------|
E|-----------2-------------------|---------3------3---------|

CUALQUIER CORRECCION ME LA HACEN SABER A MI CORREO ESTA BUENISIMA 10PTS.
Suggest correction
Creating personal tab
Creating personal tab
You can edit any tab online and save it as your Personal.

You can edit, replace or remove any tab part or add personal notes – all changes will be seen only by you.

Personal tabs can be accessed anytime from any device, even offline.
Learn more »
Give kudos to tab author, rate the tab!
1 2 3 4 5
comments
print report bad tab
guest
Wanna post a correction for this tab? Suggest correction