Oops, an error
Loading. Please wait.

Billie Holiday intro tab

version 1
version 1

Intro

Whole song

41,703 views 3 this week
2 commentsread comments
1 2 3 4 5
x 6
add to favorites
×
Save as Personal and add changes to this tab that will be seen only by you. Learn more ›
×
You can save this tab as Personal to edit and correct it or add notes. All changes will be seen only by you. Learn more »
launch autoscroll
font size
0
reset
how to read this tab
guitar tuner
edit
Autoscroll
slow
fast
+/-
esc
set tempo
stop
Author
Difficulty
You could even say this is the whole song, not only the intro, but I'm not sure. 
There is probably a bass line playing on D, A and E. But.. well. Meh. Nice and melodic

                 Am                    Am/G
E||----------------------------|-----------------------------|
B||-----------------1----------|-----------0-----------------|
G||-------2-----------------2--|------------------0----------|
D||------------2---------------|-----2------------------0----|
A||--0-------------------------|-----------------------------|
E||----------------------------|-----------------------------|

                G                             Dm
  |----------------------------|------------1----------------|
  |--0-----------------0-------|--3-----------------3-----3--|
  |--------0-------------------|-------2---------------2-----|
  |--------------0--------0----|-----------------------------|
  |----------------------------|-----------------------------|
  |----------------------------|-----------------------------|
  
               Am
  |----------------------------|-------------|
  |-----------------1----------|-------------|
  |-------2-----------------2--|--------2----|
  |------------2---------------|-----2-------|
  |--0-------------------------|-------------|
  |----------------------------|-------------|

            
            
Suggest correction
Creating personal tab
Creating personal tab
You can edit any tab online and save it as your Personal.

You can edit, replace or remove any tab part or add personal notes – all changes will be seen only by you.

Personal tabs can be accessed anytime from any device, even offline.
Learn more »
comments
print report bad tab
2 comments total.
0 reply
devonp92 190 May 08, 2011 01:24 PM

Near the end they play

|------------------------------|
|-------1-----------4----------|
|---0-----0-----0-----0--------|
|-----2-----------5------------|
|-3-----------6----------------|
|------------------------------|

0 reply
devonp92 190 Aug 18, 2011 11:17 AM

For the Bridge it's

Am - Asus4 - C - F - G - Am - C - F - G and then back to the regular Am - G - Dm - Am

Then before the "birds of a feather" part you play my previous comment:

|------------------------------|
|-------1-----------4----------|
|---0-----0-----0-----0--------|
|-----2-----------5------------|
|-3-----------6----------------|
|------------------------------|

Then for the "birds of a feather" part you play Dm - G - Dm - G and so on.

guest
You may want to rate the tab now too:
select rating
Wanna post a correction for this tab? Suggest correction