Oops, an error
Loading. Please wait.

Keep It Healthy Tab

version 2
version 2

Intro

Whole song

Interactive

844 views 21 this week
no commentswrite comment
1 2 3 4 5
2 more votes to show rating
add to favorites
launch autoscroll
font size
0
reset
how to read this tab
guitar tuner
×
Best way to learn
"Keep It Healthy"
Autoscroll
slow
fast
+/-
esc
set tempo
stop
Author
Difficulty
novice
-------------------------------------------------------------------------------
                             KEEP IT HEALTHY - Warpaint
-------------------------------------------------------------------------------
Tabbed by: nothingrandom

Tuning: Standard

e|--------------------------------------------------------------------|
B|------3------3----------------0------0------0------0------3------3--|
G|----4------4------4----0----0------0------0------0------4------4----|
D|--4------0-----------------------2------0------4------5------4------|
A|----------------4----0----2-----------------------------------------|
E|--------------------------------------------------------------------|

e|--------------------------------------------------------------------|
B|----------------0------0--------------------------------------------|
G|----0----2----0------0------0----0----------------------------------|
D|--0----0----4------2------0-----------------------------------------|
A|-------------------------------4------------------------------------|
E|--------------------------------------------------------------------|
Suggest correction
Give kudos to tab author, rate the tab!
1 2 3 4 5
comments
print report bad tab
guest
You may want to rate the tab now too:
select rating
Wanna post a correction for this tab? Suggest correction