Oops, an error
Loading. Please wait.

Love Is To Die Bass Tab

14,352 views 66 this week
2 commentsread comments
1 2 3 4 5
x 16
add to favorites
launch autoscroll
font size
0
reset
guitar tuner
Autoscroll
slow
fast
+/-
esc
set tempo
stop
Help us to improve Ultimate-Guitar.com Take our survey!
×
Author
Difficulty
  follow
intermediate
Tuning: Standart (EADG)

(0:24-1:30)
G|-------------------------------|-----777-----777-|-----------------|-----------------|
D|-17171717------17-171717-------|-----------------|-44444444-444444-|-----------------|(x7)
A|-------------------------------|-5555---5-555----|-----------------|-----------------|
E|---------151515---------151515-|-----------------|-----------------|-77777777-777777-|

(1:30-1:53)
G|-----------------|-----------------|-----------------|-----------------|
D|-----------------|-66666666-666666-|-----------------|-----------------|(x2)
A|-----------------|-----------------|-77777777-777777-|-99999999-999999-|
E|-99999999-999999-|-----------------|-----------------|-----------------|

(1:53-2:38)
G|-------------------------------|-----777-----777-|-----------------|-----------------|
D|-17171717------17-171717-------|-----------------|-44444444-444444-|-----------------|
A|-------------------------------|-5555---5-555----|-----------------|-----------------|(x4)
E|---------151515---------151515-|-----------------|-----------------|-77777777-777777-|

(2:38-3:07)
G|-----------------|-----------------|-----------------|-----------------|
D|-----------------|-----------------|-----------------|-----------------|
A|-----------------|-----------------|-77777777-777777-|-99999999-999999-|
E|-99999999-999999-|-99999999-999999-|-----------------|-----------------|

G|-----------------|-----------------|-----------------|-----------------|----------------|
D|-----------------|-66666666-666666-|-----------------|-----------------|----------------|
A|-----------------|-----------------|-77777777-777777-|-99999999-9------|-9------9-------|
E|-99999999-999999-|-----------------|-----------------|-----------------|----------------|

(3:10-3:33)
G|-----------------|-----------------|-----------------|-----------------|
D|-----------------|-66666666-666666-|-----------------|-----------------|(x2)
A|-----------------|-----------------|-77777777-777777-|-99999999-999999-|
E|-99999999-999999-|-----------------|-----------------|-----------------|

(3:33-4:19)
G|-----------------|-----------------|-----------------|-----9999--------|
D|-----------------|-66666666-666666-|-----------------|-----------------| 
A|-----------------|-----------------|-77777777-777777-|-9999-----999999-| 
E|-99999999-999999-|-----------------|-----------------|-----------------| 

G|-----999-----999-|-----------------|-----------------|-----999-----999-|
D|-----------------|-66666666-666666-|-----------------|-----------------|(x3)
A|-----------------|-----------------|-77777777-777777-|-9999---9-99-----|
E|-9999---9-99-----|-----------------|-----------------|-----------------|


(4:19:4:50)
G|-----9-------11--|------------------|------------------|-----------------|
D|-----------------|-----11-------9---|------------------|-----------------|
A|-----------------|------------------|-----11-------9---|-----7-----------| 
E|-9-------9-------|-9--------9-------|-9--------9-------|-9-------9---7---| 

G|-----9-------11--|------------------|------------------|-----------------|-----------------|
D|-----------------|-----11-------9---|------------------|-----------------|-----------------|
A|-----------------|------------------|-----11-------9---|-----7-----------|-----------------|
E|-9-------9-------|-9--------9-------|-9--------9-------|-9-------9---7---|-9---------------|
Suggest correction
comments
print report bad tab
2 comments total.
0 reply
devonp92 190 Nov 28, 2013 02:16 PM, edited on November 29 2013, 11:02 pm

In the words of Jenny "Good jarb"

0 reply
CyberdyneX 31 Jun 20, 2015 08:46 AM

cool, but intro would be easier if use G15, A13

guest
You may want to rate the tab now too:
select rating
Wanna post a correction for this tab? Suggest correction