Oops, an error
Loading. Please wait.

New Song Bass Tab

550 views 63 this week
no commentswrite comment
1 2 3 4 5
x 4
add to favorites
launch autoscroll
font size
0
reset
guitar tuner
Autoscroll
slow
fast
+/-
esc
set tempo
stop
Help us to improve Ultimate-Guitar.com Take our survey!
×
Author
Difficulty
novice
New Song by Warpaint

Source: https://www.youtube.com/watch?v=tRU4gXdwhT4

Tempo: 120 bpm  

G|----------------12-12-12\-|
D|-8------8-----------------|
A|-----10---10--------------|
E|---8----------------------|

  DU strumming 16th notes
G|-5-5-x-x-x-x-5-5-x-x-5-5-5-5-5-|-5-5-x-x-x-x-5-5-x-x-5-5-5-5-5-| }
D|-6-6-x-x-x-x-6-6-x-x-6-6-6-6-6-|-6-6-x-x-x-x-6-6-x-x-6-6-6-6-6-| }
A|-------------------------------|-------------------------------| }
E|-------------------------------|-------------------------------| }
                                                                   }x6
G|-7-7-x-x-x-x-7-7-x-x-7-7-7-7-7-|-7-7-x-x-x-x-7-7-x-x-7-7-7-7-7-| }
D|-8-8-x-x-x-x-8-8-x-x-8-8-8-8-8-|-8-8-x-x-x-x-8-8-x-x-8-8-8-8-8-| }
A|-------------------------------|-------------------------------| }
E|-------------------------------|-------------------------------| }

'You're a new song...'
G|---5---------8-----------|---5---------------------|
D|--------6---------8----8-|--------6----8----8----8-|x4
A|-3---------6-------------|-3-----------------------|
E|------4---------6----6---|------4----6----6----6---|

'I was, I was, I was so wrong...'
G|-5-5-x-x-x-x-5-5-x-x-5-5-5-5-5-|-5-5-x-x-x-x-5-5-x-x-5-5-5-5-5-| }
D|-6-6-x-x-x-x-6-6-x-x-6-6-6-6-6-|-6-6-x-x-x-x-6-6-x-x-6-6-6-6-6-| }
A|-------------------------------|-------------------------------| }
E|-------------------------------|-------------------------------| }
                                                                   }x4
G|-7-7-x-x-x-x-7-7-x-x-7-7-7-7-7-|-7-7-x-x-x-x-7-7-x-x-7-7-7-7-7-| }
D|-8-8-x-x-x-x-8-8-x-x-8-8-8-8-8-|-8-8-x-x-x-x-8-8-x-x-8-8-8-8-8-| }
A|-------------------------------|-------------------------------| }
E|-------------------------------|-------------------------------| }

'I have never felt this strong...'
G|----------------|----------------|
D|-8--------------|-8--------8-----|
A|------10--10----|------10-----10-|
E|---8------------|---8------------|

'You're a new song...'
G|---5---------8-----------|---5---------------------|
D|--------6---------8----8-|--------6----8----8----8-|x4
A|-3---------6-------------|-3-----------------------|
E|------4---------6----6---|------4----6----6----6---|

G|---------5----------|---------5----------|
D|---------------6----|---------------6----|x7
A|-3--3-3-------------|-3--3-3-------------|
E|------------4-----4-|------------4-----4-|

G|---------5----------|---------5-----8----|
D|---------------6----|--------------------|
A|-3--3-3-------------|-3--3-3-----6-----6-|
E|------------4-----4-|--------------------|

'Dancing to you all night long...'
G|---5---------8-----------|---5---------------------|
D|--------6---------8----8-|--------6----8----8----8-|x8
A|-3---------6-------------|-3-----------------------|
E|------4---------6----6---|------4----6----6----6---|

G|-------------------------|
D|-------------------------|
A|-3-----------------------|
E|-------------------------|

KEY:
 \ = slide down
Suggest correction
comments
print report bad tab
guest
You may want to rate the tab now too:
select rating
Wanna post a correction for this tab? Suggest correction