Oops, an error
Loading. Please wait.

Whiteout Tab

1,078 views 84 this week
no commentswrite comment
1 2 3 4 5
x 3
add to favorites
launch autoscroll
font size
0
reset
how to read this tab
guitar tuner
Autoscroll
slow
fast
+/-
esc
set tempo
stop
Help us to improve Ultimate-Guitar.com Take our survey!
×
Author
Difficulty
novice
[Intro]

e|--------5---------5------------5-------5-----------------------------------|
B|-----6---------6-------------5-------5-------------------------------------|
G|--7---------7----------7/8\5------5----------------------------------------|
D|---------------------------------------------------------------------------|
A|---------------------------------------------------------------------------|
E|---------------------------------------------------------------------------|

x2 

make sure you slide between the chords

e|--------7-------7----/-----5------5----------5-----5-----------------------|
B|-----8-------8------/----6------6----------5-----5-------------------------|
G|--9-------9-----9--/---7-----7------7/8\5-----5----------------------------|
D|---------------------------------------------------------------------------|
A|---------------------------------------------------------------------------|
E|---------------------------------------------------------------------------|


[Right before Verse]

e|---------0------0-------0-----0--------------------------------------------|
B|------1------1-------1-----1-----------------------------------------------|
G|---2------2-------2-----2--------------------------------------------------|
D|---------------------------------------------------------------------------|
A|---------------------------------------------------------------------------|
E|---------------------------------------------------------------------------|

Repeat intro throughout first verse.


"You know what I want..."

e|----------0-------0-------0-------0---------0--------0--------0-------0----|
B|-------1-------1-------1-------1---------1--------1---------1-------1------|
G|---------------------------------------------------------------------------|
D|--3--------3------3---------3--------2--------2---------2-------2----------|
A|---------------------------------------------------------------------------|
E|---------------------------------------------------------------------------|

x2

Part after chorus:

e|---------------------------------------------------------------------------|
B|---------------------------------------------------------------------------|
G|---------------------------------------------------------------------------|
D|-3-2-3-2-3-2-2-2/7-5-5-5/9-7-7-7\2-----------------------------------------|
A|---------------------------------------------------------------------------|
E|---------------------------------------------------------------------------|

[Repeat intro throughout second verse]

"Oh you know what I want..."

e|--5--5--5--5---5--5--5--5---7--7--7--7---5--5--5--5------------------------|
B|--6--6--6--6---5--5--5--5---8--8--8--8---6--6--6--6------------------------|
G|--7--7--7--7---5--5--5--5---9--9--9--9---7--7--7--7------------------------|
D|---------------------------------------------------------------------------|
A|---------------------------------------------------------------------------|
E|---------------------------------------------------------------------------|


[During and before the "White out..." part]

e|---------10-10-10---------------------------10-10-10------------------------12-12-12----------------------|
B|-------------------10-10-10--------------------------10-10-10----------------------12-12-12---------------|
G|----------------------------------10---12---------------------------10----12----------------------11---13-|
D|-12-12-12-------------------12-12---12------------------------12-12----12--------------------13-13--13----|
A|----------------------------------------------------------------------------------------------------------|
E|----------------------------------------------------------------------------------------------------------|



************************************

| x   Dead note
| g   Grace note
| (n) Ghost note
| h   Hammer-on
| p   Pull-off
| r   Release
| >   Accented note
| t   Tapping
| b   Bend
| br  Bend release
| pb  Pre-bend
| pbr Pre-bend release
| /   Slide up
| \   Slide down
| ~   Vibrato
| s   Slap
| P   Pop
| PM  Palm mute
| TR  Trill
| N   Tremolo

************************************
Suggest correction
Give kudos to tab author, rate the tab!
1 2 3 4 5
comments
print report bad tab
guest
You may want to rate the tab now too:
select rating
Wanna post a correction for this tab? Suggest correction