Oops, an error
Loading. Please wait.

Love Is Not A Fight chords

version 1
version 1

Whole song

64,166 views 9 this week
4 commentsread comments
1 2 3 4 5
x 19
add to favorites
×
Save as Personal and add changes to this tab that will be seen only by you. Learn more ›
×
You can save this tab as Personal to edit and correct it or add notes. All changes will be seen only by you. Learn more »
launch autoscroll
font size
0
reset
transpose
0
reset
display chords
guitar tuner
edit
Autoscroll
slow
fast
+/-
esc
set tempo
stop
Author
Difficulty
intermediate
Strumming
There is no strumming pattern for this song yet. and get +5 IQ
Standard Tuning: E/A/D/G/B/E
Chords used
   D     A    F#m    E
e|-2-| |-0-| |-2-| |-0-|
B|-3-| |-2-| |-2-| |-0-|
G|-2-| |-2-| |-2-| |-1-|
D|-0-| |-2-| |-4-| |-2-|
A|-X-| |-0-| |-4-| |-2-|
E|-X-| |-X-| |-2-| |-0-|

This is the song in chronological order so you can play along with the track while you
easier.  Here is a breakdown of the whole song: Intro/Verse 1/Chorus/Verse 
3/Chorus/Conclusion

[Verse 1]
e|-------------------------|
B|--10----9/---7----5----2-|
G|--11----9/---7---------2-|  (Repeat 2x)
D|-------------------------|
A|--9-----7/---5----7----0-|
E|-------------------------|

[Verse 1]
e|-------------------------|
B|--10----9/---7----5----2-|
G|--11----9/---7---------2-|  (Repeat 3x)
D|-------------------------|
A|--9-----7/---5----7----0-|
E|-------------------------|
Strum Chords: D/A/E

 D         (A)     E
"Commit to never Leave"

[Verse 1]
e|-------------------------|
B|--10----9/---7----5----2-|
G|--11----9/---7---------2-|  (Repeat 3x)
D|-------------------------|
A|--9-----7/---5----7----0-|
E|-------------------------|
Strum Chords: D/A/E

        D        (A)    E
"Let it bring us to our knees"

[Chorus]
D         A     F#m           E      D         A          F#m            E
Love is a shelter in a raging storm; Love is a peace in a middle of a war,
    D           A                   F#m           E
and if we try to leave may God send angels to guard the door.
    D             A             F#m             E
No, love is not a fight, but is something worth fighting for.

e|-------------------------|
B|--10----9/---7----5----2-|
G|--11----9/---7---------2-|  (Repeat 2x)
D|-------------------------|
A|--9-----7/---5----7----0-|
E|-------------------------|

[Verse 2]
e|-------------------------|
B|--10----9/---7----5----2-|
G|--11----9/---7---------2-|  (Repeat 3x)
D|-------------------------|
A|--9-----7/---5----7----0-|
E|-------------------------|
Strum Chords: D/A/E

               D       (A)     E
"Keeping their word is hard to do"

[Chorus]
D         A     F#m           E      D         A          F#m            E
Love is a shelter in a raging storm; Love is a peace in a middle of a war,
    D           A                   F#m           E
and if we try to leave may God send angels to guard the door.
    D             A             F#m             E
No, love is not a fight, but is something worth fighting for.

e|-------------------------|
B|--10----9/---7----5----2-|
G|--11----9/---7---------2-|  (Repeat 2x)
D|-------------------------|
A|--9-----7/---5----7----0-|
E|-------------------------|

[Verse 3]
e|-------------------------|
B|--10----9/---7----5----2-|
G|--11----9/---7---------2-|  (Repeat 3x)
D|-------------------------|
A|--9-----7/---5----7----0-|
E|-------------------------|

[Chorus]
D         A     F#m           E      D         A          F#m            E
Love is a shelter in a raging storm; Love is a peace in a middle of a war,
    D           A                   F#m           E
and if we try to leave may God send angels to guard the door.
    D             A             F#m             E
No, love is not a fight, but is something worth fighting for.

[Conclusion]
e|-------------------------|
B|--10----9/---7----5----2-|
G|--11----9/---7---------2-|  (Repeat 4x)
D|-------------------------|
A|--9-----7/---5----7----0-|
E|-------------------------|
Suggest correction
Creating personal tab
Creating personal tab
You can edit any tab online and save it as your Personal.

You can edit, replace or remove any tab part or add personal notes – all changes will be seen only by you.

Personal tabs can be accessed anytime from any device, even offline.
Learn more »
comments
print report bad tab
4 comments total. Showing first comments.
+1 reply
sweetumsj 20 Apr 22, 2009 05:26 PM

i am a 15-year old and i listened to it... i havent gotten playing by ear as yet but so far i heard F#...D...A for the first three lines then D ..A..E for the last line

the chorus goes D..A..F#...E....D...A...F#...E....D...A....F#...E

D A D E F#
'NO LOVE IS NOT A FIGHT BUT SOMETHING WORTH FIGHTING FOR'

0 reply
♫♪MusicIsLife♪♫ 10 Jul 21, 2009 06:35 PM

You nailed it! Thanks so much, I really needed this tab. God Bless!

+1 reply
bockbock33 10 Feb 18, 2013 11:26 AM

Correction for the fourth part of the intro:

[--------------------------------------------]
[--5-----------------------------------------]
[--------------------------------------------]
[--------------------------------------------]
[--7-----------------------------------------]
[--------------------------------------------]

Should be:

[--------------------------------------------]
[--5-----------------------------------------]
[--6-----------------------------------------]
[--------------------------------------------]
[--7-----------------------------------------]
[--------------------------------------------]

guest
You may want to rate the tab now too:
select rating
Wanna post a correction for this tab? Suggest correction