Oops, an error
Loading. Please wait.

Regulate bass

19,575 views 63 this week
2 commentsread comments
1 2 3 4 5
x 22
add to favorites
×
Save as Personal and add changes to this tab that will be seen only by you. Learn more ›
×
You can save this tab as Personal to edit and correct it or add notes. All changes will be seen only by you. Learn more »
launch autoscroll
font size
0
reset
guitar tuner
edit
Autoscroll
slow
fast
+/-
esc
set tempo
stop
Song: Regulate
Artist: Warren G Featuring Nate Dogg
Tabbed by K.C. (kc@kcsrealm.com)


G|-------------|------------------|---------------------|------------------
D|----------0h2|------------------|---------------------|---------------0h2
A|-------------|--------------0-2-|-3---------3-3-------|-3-2-0------2p0---
E|-0---0-0-----|-0--0--0----------|---------------------|---------2--------

Repeats for the whole song.
Suggest correction
Creating personal tab
Creating personal tab
You can edit any tab online and save it as your Personal.

You can edit, replace or remove any tab part or add personal notes – all changes will be seen only by you.

Personal tabs can be accessed anytime from any device, even offline.
Learn more »
comments
print report bad tab
2 comments total.
0 reply
Jasper7979 51 Sep 17, 2007 10:59 AM

Good Work!

0 reply
steppsteph 10 Feb 27, 2011 03:20 AM

The dead tone is the bass drum in the song, but I like to add it for feeling.

G|---------------------|------------------
D|---------------------|---------------0h2
A|-3---------3-3------X|-3-2-0------2p0---
E|---------------------|---------2--------

guest
Wanna post a correction for this tab? Suggest correction