Oops, an error
Loading. Please wait.

Excitable Boy Bass Tab

version 1
version 1

Whole song

Interactive

813 views 1 this week
no commentswrite comment
1 2 3 4 5
2 more votes to show rating
add to favorites
launch autoscroll
font size
0
reset
guitar tuner
Autoscroll
slow
fast
+/-
esc
set tempo
stop
Help us to improve Ultimate-Guitar.com Take our survey!
×
Intro
G        ---------------------------------------------------|
D        ---------------------------------2---------2-------|
A        -----------------------------2-4-------2-4---------|
E        0--0--0-2-4-5--5--0-5-4-2--0-------5-0-------------|

G        ---------------------------------------------------|
D        ---------------------------------2-----------------|
A        -----------------------------2-4-----------4-------|
E        0--0--0-2-4-5--5--0-5-4-2--0-------5-0-2-4---------|

G        ---------------------------------------------------|
D        ---------------------------------------------------|
A        2-2-2-2-2--------------2---------------------------|
E        ----------4-2-0--0-2-4-----------------------------|


Verse 1
G        ---------------------------------------------------|
D        ---------------------------------2-----2-----------|
A        -----------------------------2-4---------4-2-------|
E        0--0--0-2-4-5--5--0-5-4-2--0-------5-0-------------|

G        ---------------------------------------------------|
D        ---------------------------------2-----------------|
A        -----------------------------2-4-----------4-------|
E        0--0--0-2-4-5--5--0-5-4-2--0-------5-0-2-4---------|

G        ---------------------------------------------------|
D        ---------------------------------------------------|
A        2-2-2-2-2--------------2---------------------------|
E        ----------4-2-0--0-2-4-----------------------------|


Verse 2
G        ---------------------------------------------------|
D        ---------------------------------2---2-2-----------|
A        -----------------------------2-4---------4-2-------|
E        0--0--0-2-4-5--5--0-5-4-2--0-------5---------------|

G        ---------------------------------------------------|
D        ---------------------------------------------------|
A        ---------------------------------2---------4-------|
E        0--0--0-2-4-5--5--0-5-4-2--0-2-4---0-0-2-4---------|

G        ---------------------------------------------------|
D        ---------------------------------------------------|
A        2-2-2-2-2--------------2---------------------------|
E        ----------4-2-0--0-2-4-----------------------------|


Break
G        ---------------------------------------------------|
D        ---------------------------------2-----2-----------|
A        -----------------------------2-4---------4-2-------|
E        0--0--0-2-4-5--5--0-5-4-2--0-------5-0-------------|

G        ---------------------------------------------------|
D        ---------------------------------2-----------------|
A        -----------------------------2-4-------------------|
E        0--0--0-2-4-5--5--0-5-4-2--0-------5-0-2-4-5-------|

G        ---------------------------------------------------|
D        -------------------------------------2-------------|
A        2-2-2-2-2----------------------4-2-4---------------|
E        ----------4-2-0------------------------5-4---------|


Verse 3
G        ---------------------------------------------------|
D        ---------------------------------2-----2-----------|
A        -----------------------------2-4---------4-2-------|
E        0--0--0-2-4-5--5--0-5-4-2--0-------5-0-------------|

G        ---------------------------------------------------|
D        ---------------------------------2-----------------|
A        -----------------------------2-4-----------4-------|
E        0--0--0-2-4-5--5--0-5-4-2--0-------5-0-2-4---------|

G        ---------------------------------------------------|
D        ---------------------------------------------------|
A        2-2-2-2-2--------------2---------------------------|
E        ----------4-2-0--0-2-4-----------------------------|


Email me any feedback or corrections - greg@woodenboyrecords.com
Check out Kids on Bikes at woodenboyrecords.com or iTunes.
Suggest correction
Give kudos to tab author, rate the tab!
1 2 3 4 5
comments
print report bad tab
guest
You may want to rate the tab now too:
select rating
Wanna post a correction for this tab? Suggest correction