Oops, an error
Loading. Please wait.

Piercing Light tab

version 1
version 1

Whole song

3,367 views 21 this week
1 commentread comment
1 2 3 4 5
x 7
add to favorites
×
Save as Personal and add changes to this tab that will be seen only by you. Learn more ›
×
You can save this tab as Personal to edit and correct it or add notes. All changes will be seen only by you. Learn more »
launch autoscroll
font size
0
reset
how to read this tab
guitar tuner
edit
Autoscroll
slow
fast
+/-
esc
set tempo
stop
Author
Difficulty
e|--------------------------------------------------------------|
B|--------------------------------------------------------------|
G|--------------------------------------------------------------|
D|-0--0--0--0-2-3--0--0--0--0--2-5-3--3--3--3-3-5-3--3--3--5-3-2|
A|--------------------------------------------------------------|
E|--------------------------------------------------------------|

repeat till the song ends 


            
            
Suggest correction
Creating personal tab
Creating personal tab
You can edit any tab online and save it as your Personal.

You can edit, replace or remove any tab part or add personal notes – all changes will be seen only by you.

Personal tabs can be accessed anytime from any device, even offline.
Learn more »
comments
print report bad tab
1 comment total.
0 reply
axelschneider97 10 Apr 21, 2017 04:51 AM

e|----------------------------------------------------------------|
B|----------------------------------------------------------------|
G|-7-----7--------7-----7----------10----10--------10-10-10-------|
D|-7-----7--------7-----7----------10----10--------10-10-10-------|
A|-5--5--5--5-7-8-5--5--5--5--7-10-8--8--8--8-8-10-8--8--8--10-8-7|
E|----------------------------------------------------------------|

After playing your riff for like half an hour i ended up playing it like this maybe you like it as well

guest
You may want to rate the tab now too:
select rating
Wanna post a correction for this tab? Suggest correction