Oops, an error
Loading. Please wait.

Piercing Light tab

version 2
version 2

Whole song

376 views 6 this week
no commentswrite comment
1 2 3 4 5
2 more votes to show rating
add to favorites
×
Save as Personal and add changes to this tab that will be seen only by you. Learn more ›
×
You can save this tab as Personal to edit and correct it or add notes. All changes will be seen only by you. Learn more »
launch autoscroll
font size
0
reset
how to read this tab
guitar tuner
edit
Autoscroll
slow
fast
+/-
esc
set tempo
stop
Artist: League Of Legends 
Featured artist: Mako
Released: 2016
Genre: Dance/electronic


[Intro] 
    Guitar 1: Starts at 0:07 - 1:08
e|----------------------------------------------------------------------------|
B|----------------------------------------------------------------------------|
G|----------------------------------------------------------------------------|
D|----------------------------------------------------------------------------|
A|5--5--5--5--7h8--5--5--5--5--8h10--8--8--8--8--8h10--8--8--8--8--10--8--7--5|
D|----------------------------------------------------------------------------|
PM---------------------------------------------------------------------------->

    Violin replaced for guitar 2, starts at 0:22 - 0:53
e|---------------------------------------------------------------------------|
B|---------------------------------------------------------------------------|
G|---------------------------------------------------------------------------|
D|0--2h3p0--3h5--3--3h5--3--5--3p2--0----2h3p0--3h5--3--3h5--3--5----x2------|
A|---------------------------------------------------------------------------|
D|---------------------------------------------------------------------------|

  Guitar 2 (continued)         0:53 - 1:08
e|---------------------------------------------------------------------------|
B|---------------------------------------------------------------------------|
G|7v~-9h10p7--10h12p10--10h12p10--12p10-9--7v~-9h10p7--10h12p10--10h12p10--12|
D|---------------------------------------------------------------------------|
A|---------------------------------------------------------------------------|
D|---------------------------------------------------------------------------|


[Verse] 
This is where the song picks up before the hard dance breakdown in the chorus. 
Guitar 3 replaced for synth, starts at 1:08 - 1:38
e|10--10--10--10--12h13--10--10--10--10--13h15--13--13--13--13--13h15--------|
B|---------------------------------------------------------------------------|
G|---------------------------------------------------------------------------|
D|---------------------------------------------------------------------------|
A|---------------------------------------------------------------------------|
D|---------------------------------------------------------------------------|

             guitar synth (contiuned)
e|13--13--13--13--15--13--12--10----------x4---------------------------------|
B|---------------------------------------------------------------------------|
G|---------------------------------------------------------------------------|
D|---------------------------------------------------------------------------|
A|---------------------------------------------------------------------------|
D|---------------------------------------------------------------------------|


          Backing Guitar Starts at 1:08 -1:39
e|---------------------------------------------------------------------------|
B|---------------------------------------------------------------------------|
G|-------------------------x4------------------------------------------------|
D|8888--5555--0000--7777-----------------------------------------------------|
A|8888--5555--0000--7777-----------------------------------------------------|
D|8888--5555--0000--7777-----------------------------------------------------|


          Guitar 2  starts at 1:23  -  1:41
e|---------------------------------------------------------------------------|
B|10--12p10-9--7v~-9h10p7--10h12p10--10h12p10--12--10--9--7--9h10p7v~--------|
G|---------------------------------------------------------------------------|
D|------------------------------------------------------------------x2-------|
A|---------------------------------------------------------------------------|
D|---------------------------------------------------------------------------|


    Guitar 1: Starts at 1:23 - 1:39
e|----------------------------------------------------------------------------|
B|----------------------------------------------------------------------------|
G|----------------------------------------------------------------------------|
D|----------------------------------------------------------------------------|
A|5--5--5--5--7h8--5--5--5--5--8h10--8--8--8--8--8h10--8--8--8--8--10--8--7--5|
D|----------------------------------------------------------------------------|
PM---------------------------------------------------------------------------->


        guitar replaced for synth starts at 1:41  2:09
e|10--10--10--10--12h13--10--10--10--10--12h13-------------------------------|
B|----------------------------------------------x15--------------------------|
G|---------------------------------------------------------------------------|
D|---------------------------------------------------------------------------|
A|---------------------------------------------------------------------------|
D|---------------------------------------------------------------------------|


         Guitar 1    1:40 - 2:09
e|---------------------------------------------------------------------------|
B|---------------------------------------------------------------------------|
G|--------------------------------------------------------------x15----------|
D|---------------------------------------------------------------------------|
A|5--5--5--5--7h8--5--5--5--5--7h8--5--5--5--5--7h8--5--5--5--5--7h8---------|
D|---------------------------------------------------------------------------|
PM--------------------------------------------------------------------------->



[Chorus]
2:10 - 2:40
Backing Guitar 
e|---------------------------------------------------------------------------|
B|---------------------------------------------------------------------------|
G|---------------------------------------------------------------------------|
D|8888--5555--0000--7777--------x4-------------------------------------------|
A|8888--5555--0000--7777-----------------------------------------------------|
D|8888--5555--0000--7777-----------------------------------------------------|


             guitar replaced for synth starts at 2:10 - 2:40
e|10--10--10--10--12h13--10--10--10--10--13h15--13--13--13--13--13h15--------|
B|---------------------------------------------------------------------------|
G|---------------------------------------------------------------------------|
D|---------------------------------------------------------------------------|
A|---------------------------------------------------------------------------|
D|---------------------------------------------------------------------------|
             guitar synth (contiuned)
e|13--13--13--13--15--13--12--10----------x4---------------------------------|
B|---------------------------------------------------------------------------|
G|---------------------------------------------------------------------------|
D|---------------------------------------------------------------------------|
A|---------------------------------------------------------------------------|
D|---------------------------------------------------------------------------|


[Interlude]
starts at 2:41
            Guitar replaced for Violin 2:42 - 2:47
e|---------------------------------------------------------------------------|
B|---------------------------------------------------------------------------|
G|---------------------------------------------------------------------------|
D|----------------------11h2h11h12\------------------------------------------|
A|10h12h10h12h10h12h10-------------------------------------------------------|
D|---------------------------------------------------------------------------|

    Im not too sure about this part... 
                 
                acoustic guitar starts at 2:48 - 3:34       
e|---------------------------------------------------------------------------|
B|--8---8---8---8---6---6---6---6---5---5---5---5----------------------------|
G|7---7---7---7---7---7---7---7---7---7---7---7------------------------------|
D|---------------------------------------------------------------------------|
A|---------------------------------------------------------------------------|
D|---------------------------------------------------------------------------|
PM--------------------------------------------------------------------------->


Violin replaced for guitar 2, starts at 2:49 - 3:19
e|---------------------------------------------------------------------------|
B|---------------------------------------------------------------------------|
G|---------------------------------------------------------------------------|
D|0--2h3p0--3h5--3--3h5--3--5--3p2--0----2h3p0--3h5--3--3h5--3--5----x2------|
A|---------------------------------------------------------------------------|
D|---------------------------------------------------------------------------|


  Guitar 1: Starts at 3:04 - 3:34
e|----------------------------------------------------------------------------|
B|---------------------------------------------------x4-----------------------|
G|----------------------------------------------------------------------------|
D|----------------------------------------------------------------------------|
A|5--5--5--5--7h8--5--5--5--5--8h10--8--8--8--8--8h10--8--8--8--8--10--8--7--5|
D|----------------------------------------------------------------------------|
PM---------------------------------------------------------------------------->


 Guitar 2 (continued)         3:19 - 3:34
e|---------------------------------------------------------------------------|
B|---------------------------------------------------------------------------|
G|7v~-9h10p7--10h12p10--10h12p10--12p10-9--7v~-9h10p7--10h12p10--10h12p10--12|
D|---------------------------------------------------------------------------|
A|---------------------------------------------------------------------------|
D|---------------------------------------------------------------------------|

[Breakdown]  
Starts at 3:34 - 4:04
         Guitar 1    3:34 - 4:04
e|---------------------------------------------------------------------------|
B|---------------------------------------------------------------------------|
G|--------------------------------------------------------------x15----------|
D|---------------------------------------------------------------------------|
A|5--5--5--5--7h8--5--5--5--5--7h8--5--5--5--5--7h8--5--5--5--5--7h8---------|
D|---------------------------------------------------------------------------|
PM--------------------------------------------------------------------------->


 guitar replaced for synth starts at 3:37 - 4:04
e|10--10--10--10--12h13--10--10--10--10--12h13-------------------------------|
B|----------------------------------------------x15--------------------------|
G|---------------------------------------------------------------------------|
D|---------------------------------------------------------------------------|
A|---------------------------------------------------------------------------|
D|---------------------------------------------------------------------------|

[Chorus]    
4:06 - 4:36
                    Backing Guitar 
e|---------------------------------------------------------------------------|
B|---------------------------------------------------------------------------|
G|---------------------------------------------------------------------------|
D|8888--5555--0000--7777--------x4-------------------------------------------|
A|8888--5555--0000--7777-----------------------------------------------------|
D|8888--5555--0000--7777-----------------------------------------------------|


             guitar replaced for synth starts at 4:06 - 4:36
e|10--10--10--10--12h13--10--10--10--10--13h15--13--13--13--13--13h15--------|
B|---------------------------------------------------------------------------|
G|---------------------------------------------------------------------------|
D|---------------------------------------------------------------------------|
A|---------------------------------------------------------------------------|
D|---------------------------------------------------------------------------|
             guitar synth (contiuned)
e|13--13--13--13--15--13--12--10----------x4---------------------------------|
B|---------------------------------------------------------------------------|
G|---------------------------------------------------------------------------|
D|---------------------------------------------------------------------------|
A|---------------------------------------------------------------------------|
D|---------------------------------------------------------------------------|

[Outro]
 Guitar replaced for Violin 4:37 - 4:42
e|---------------------------------------------------------------------------|
B|---------------------------------------------------------------------------|
G|---------------------------------------------------------------------------|
D|----------------------11h2h11h12\------------------------------------------|
A|10h12h10h12h10h12h10-------------------------------------------------------|
D|---------------------------------------------------------------------------| 

************************************

| h   Hammer-on
| PM  Palm mute
| x   Dead note
| p   Pull-off
| \   Slide down
 

************************************
Suggest correction
Creating personal tab
Creating personal tab
You can edit any tab online and save it as your Personal.

You can edit, replace or remove any tab part or add personal notes – all changes will be seen only by you.

Personal tabs can be accessed anytime from any device, even offline.
Learn more »
Give kudos to tab author, rate the tab!
1 2 3 4 5
comments
print report bad tab
guest
You may want to rate the tab now too:
select rating
Wanna post a correction for this tab? Suggest correction