Oops, an error
Loading. Please wait.

Eyelids tab

by Washer
148 views 9 this week
no commentswrite comment
1 2 3 4 5
1 last vote to show rating
add to favorites
×
Save as Personal and add changes to this tab that will be seen only by you. Learn more ›
×
You can save this tab as Personal to edit and correct it or add notes. All changes will be seen only by you. Learn more »
launch autoscroll
font size
0
reset
how to read this tab
guitar tuner
edit
Autoscroll
slow
fast
+/-
esc
set tempo
stop
Author
[Verse]

e|---------------------------------------------------------------------------|
B|---------------------------------------------------------------------------|
G|---------------------------------------------------------------------------|
D|---------------------------------------------------------------------------|
A|------5-2--2-2-2-----3-3-2-2-5-5-------------------------------------------| 4x
E|--3-3------------3-3-------------------------------------------------------|

e|---------------------------------------------------------------------------|
B|---------------------------------------------------------------------------|
G|---------------------------------------------------------------------------|
D|---------------------------------------------------------------------------|
A|------5-2--2-2-2-----3-3-2-2-5-5-------------------------------------------| 4x
E|--3-3------------3-3-------------------------------------------------------|

I nailed your picture to the backs of my eyelids 
and I went on walking, hands forward with a stick 

e|---------------------------------------------------------------------------|
B|---------------------------------------------------------------------------|
G|---------------------------------------------------------------------------|
D|---------------------------------------------------------------------------|
A|---------------------------------------------------------------------------| 1x
E|--5-5-8-8------------------------------------------------------------------|

e|---------------------------------------------------------------------------|
B|---------------------------------------------------------------------------|
G|---------------------------------------------------------------------------|
D|---------------------------------------------------------------------------|
A|------5-2--2-2-2-----3-3-2-2-5-5-------------------------------------------| 6x
E|--3-3------------3-3-------------------------------------------------------|

and in the daylight I’d stumble through collections of red 
until crawling back slowly beside you in bed 

e|---------------------------------------------------------------------------|
B|---------------------------------------------------------------------------|
G|---------------------------------------------------------------------------|
D|---------------------------------------------------------------------------|
A|---------------------------------------------------------------------------| 1x
E|--5-5-8-8------------------------------------------------------------------|

e|---------------------------------------------------------------------------|
B|---------------------------------------------------------------------------|
G|---------------------------------------------------------------------------|
D|---------------------------------------------------------------------------|
A|------5-2--2-2-2-----3-3-2-2-5-5-------------------------------------------| 6x
E|--3-3------------3-3-------------------------------------------------------|

and in the morning I’d struggle to keep my feed inside 
right terrified, fear of the outside 

e|---------------------------------------------------------------------------|
B|---------------------------------------------------------------------------|
G|---------------------------------------------------------------------------|
D|--------------2-5----------------------------------------------------------|
A|------2-2-5-5--------------------------------------------------------------| 4x
E|--3-3-------------5-5-5-5-8-8-8-8------------------------------------------|

e|---------------------------------------------------------------------------|
B|---------------------------------------------------------------------------|
G|---------------------------------------------------------------------------|
D|---------------------------------------------------------------------------|
A|------5-2--2-2-2-----3-3-2-2-5-5-------------------------------------------| 8x
E|--3-3------------3-3-------------------------------------------------------|

"And lead us not into annihilation 
but deliver us from rubble 
for thine is the power,

e|---------------------------------------------------------------------------|
B|---------------------------------------------------------------------------|
G|---------------------------------------------------------------------------|
D|---------------------------------------------------------------------------|
A|---------------------------------------------------------------------------| 1x
E|--5-5-8-8------------------------------------------------------------------|

and the power... 


[Chorus]

e|---------------------------------------------------------------------------|
B|---------------------------------------------------------------------------|
G|---------------------------------------------------------------------------|
D|--------------2-5----------------------------------------------------------|
A|------2-2-5-5--------------------------------------------------------------| 5x
E|--3-3-------------5-5-5-5-8-8-8-8------------------------------------------|

forever and never, oh man”

e|---------------------------------------------------------------------------|
B|---------------------------------------------------------------------------|
G|---------------------------------------------------------------------------|
D|---------------------------------------------------------------------------|
A|------5-2--2-2-2-----3-3-2-2-5-5-------------------------------------------| 4x
E|--3-3------------3-3-------------------------------------------------------|

forever and ever, oh man.

            
            
Suggest correction
Creating personal tab
Creating personal tab
You can edit any tab online and save it as your Personal.

You can edit, replace or remove any tab part or add personal notes – all changes will be seen only by you.

Personal tabs can be accessed anytime from any device, even offline.
Learn more »
Give kudos to tab author, rate the tab!
1 2 3 4 5
comments
print report bad tab
guest
You may want to rate the tab now too:
select rating
Wanna post a correction for this tab? Suggest correction