Oops, an error
Loading. Please wait.

Good Day For A Hanging bass

version 1
version 1

Whole song

Interactive

92 views 1 this week
no commentswrite comment
1 2 3 4 5
3 more votes to show rating
add to favorites
×
Save as Personal and add changes to this tab that will be seen only by you. Learn more ›
×
You can save this tab as Personal to edit and correct it or add notes. All changes will be seen only by you. Learn more »
launch autoscroll
font size
0
reset
guitar tuner
edit
Autoscroll
slow
fast
+/-
esc
set tempo
stop
Author
Difficulty
intermediate
-------------------------------------------------------------------------------
                     GOOD DAY FOR A HANGING - Wasted Youth
-------------------------------------------------------------------------------
Tabbed by: PCTR
E-mail: peccator93@gmail.com

Tuning: standard (however the original record is about 33 cents flat)

INTRO
G|-----|---------|-----|--------|-----|--------|---|
D|-----|---------|-----|--------|-----|--------|---|
A|-----|-----7-7-|-----|--------|-----|----7-7-|-7-|
E|-0-r-|---0-----|-0-r-|---0-0--|-0-r-|---0----|---|


RIFF 1
G|------------------------|------------------------|
D|------------------------|------------------------|
A|------------------------|------------------------|
E|-0--0--0-1---0--0-1---0-|-0--0---1---3---1---0-0-|


CHORUS
G|--------------------|----------------------------|
D|--------------------|----------------------------|
A|-2------------------|----------------1-----------|
E|--------------------|-1--1-1-1-1-1-1-----2---1---|

G|------------------------|------------------------|
D|------------------------|------------------------|
A|------------------------|------------------------|
E|-0--0--0-1---0--0-1---0-|-0--0---1---3---1---0-0-|

G|--------------------|----------------------------|
D|--------------------|----------------------------|
A|-2------------------|----------------1-----------|
E|--------------------|-1--1-1-1-1-1-1---r-2-r-1-r-|


BRIDGE
G|-------------------------------|
D|-------------------------------|
A|----7-7-7-7-7-7-7--------------|
E|-0-----------------0-0-0-0-0-0-|


RE-INTRO
G|----------|----------|---------|
D|----------|----------|---------|
A|----------|------7-7-|-7-------|
E|-0-r------|----0-----|---------|


SLOW PART
G|-----------------------|------------------------|
D|------2----2-----------|------------------------|
A|--------------5--2--3L-|-L--3--3----3-2-1-------|
E|-0---------------------|------------------3-2-1-|


BREAK
G|-------------------------------|
D|-------------------------------|
A|-------------------3-2-1-------|
E|-0-r-0-r-0-r-0-r--0------3-2-1-|


RIFF 2
G|----------------------------------|-----------------------------------|
D|----------------------------------|-----------------------------------|
A|-----------------------------5h6p-|-5h6-------------------------------|
E|-0--0-6-0-5-0-3-0--0-6-0-5-0------|-----0-0-6-0-5-0-0-3-6-6-6-6-6-5-3-|


OUTRO
G|---------------|
D|---------------|
A|---------------|
E|-06--5--3--0-r-|


PLAYING ORDER
 INTRO
 RIFF1 x6 (2x riff, 4x vocals)
 CHORUS
 RIFF1 X4
 CHORUS
 BRIDGE X8
 RE-INTRO
 RIFF1 x6 (2x riff, 4x vocals)
 CHORUS
 BRIDGE X8
 SLOW PART X12 (4X vocals, 4x solo, 4x vocals)
 BREAK x4 (after that there's a long E note)
 RIFF 2 X10 (2x riff, 6x solo, 2x vocals)
 OUTRO


************************************

| h   hammer-on
| p   pull-off
| L   tied note
| r   rest

************************************

            
            
Suggest correction
Creating personal tab
Creating personal tab
You can edit any tab online and save it as your Personal.

You can edit, replace or remove any tab part or add personal notes – all changes will be seen only by you.

Personal tabs can be accessed anytime from any device, even offline.
Learn more »
Give kudos to tab author, rate the tab!
1 2 3 4 5
comments
print report bad tab
guest
You may want to rate the tab now too:
select rating
Wanna post a correction for this tab? Suggest correction