Oops, an error
Loading. Please wait.

Malfeitor Guitar Pro

version 2
version 2

Whole song

Interactive

8,515 views 12 this week
1 commentread comment
1 2 3 4 5
excellent!
x 8
add to favorites
guitar tuner
Autoscroll
slow
fast
+/-
esc
set tempo
stop
Contributor
Difficulty
Filesize
Instruments
intermediate
108 Kb
rhythm guitar, lead guitar, bass, percussion
"Malfeitor"
demo version
Play now

or get full version for Free

Get full version now!
To learn and play this song
in Tab Pro, start free trial
Start free trial

or get $10 off Welcome Bonus

Get welcome bonus
Get access to Tab Pro version of “Malfeitor”!
Tab Pro is a premium guitar tab service, available on PC, Mac, iOS and Android
START FREE TRIAL
To download “Malfeitor” Guitar Pro tab click button below
Please note that you must have Guitar Pro software installed on your
computer in order to view this file.
comments
report bad tab
1 comment total.
0 reply
Jackie_tab wrote on November 20 2014, 03:09 pm

Great tab and tonally it's all correct, though I have one comment:

I saw Watain live last year and Pelle definitely played the main verse Dm-D#m-C#m arpeggio pattern on the G, B and e strings, like this

e|-------1----------1----------1----------2----------------------|
B|-----3---3------3---3------3---3------4---4--------------------|
G|---2-------2--2-------2--2-------2--3-------3------------------|
D|---------------------------------------------------------------|
A|---------------------------------------------------------------|
E|---------------------------------------------------------------|

e|-------1----------1----------1----------0----------------------|
B|-----3---3------3---3------3---3------3---3--------------------|
G|---2-------2--2-------2--2-------2--2-------2------------------|
D|---------------------------------------------------------------|
A|---------------------------------------------------------------|
E|---------------------------------------------------------------|

Your version isn't wrong, but that's how Watain play it, if there's anyone who really wants to nail it 100%. I kind of prefer your version since it doesn't sound so tinny.

I want to post or [tab]
guest
You may want to rate the tab now too:
select rating
Please do not post tabs as comments. Select "correction" instead!