Oops, an error
Loading. Please wait.

On Horns Impaled Tab

4,414 views 6 this week
no commentswrite comment
1 2 3 4 5
please rate
add to favorites
launch autoscroll
font size
0
reset
how to read this tab
guitar tuner
Autoscroll
slow
fast
+/-
esc
set tempo
stop
Help us to improve Ultimate-Guitar.com Take our survey!
×
Author
-------------------------------------------------------------------------------
			On Horns Impaled - Watain
-------------------------------------------------------------------------------
Tabbed by:	Sickgod
Email:		rmehalwal@gmail.com

Tuning:		Standard Tuning [E A D G B e]

e|-------------------------------------------------------------------|
B|------------------9-9-9-9------------------------------------------|
G|----------8-8-8-8---------8-8-8-8---------8-8-8-8-9-9-9-9-8-8-8-8--|_
D|--6-6-6-6-------------------------6-6-6-6--------------------------| |
A|-------------------------------------------------------------------| |
E|-------------------------------------------------------------------| |
								        Riff
e|-------------------------------------------------------------------| | 1
B|-------------------------------------------------------------------| |
G|-------------------------------------------------------------------|_|
D|----------8-8-8-8-9-9-9-9-8-8-8-8-6-6-6-6-5-5-5-5---------5-5-5-5--|
A|--6-6-6-6-----------------------------------------6-6-6-6----------|
E|-------------------------------------------------------------------|

e|-------------------------------------------------------------------|
B|-------------------------------------------------------------------|
G|-------------------------------------------------------------------|_
D|-------------------------------------------------------------------| |
A|--6-6-6-6-6-6-6-6-6-6-6-6-6-6-6-6-6-6-6-6-6-6-6-6-6-6-6-6-6-6-6-6--| |
E|--4-4-4-4-4-4-4-4-4-4-4-4-4-4-4-4-4-4-4-4-4-4-4-4-4-4-4-4-4-4-4-4--| |
								        Riff
e|-------------------------------------------------------------------| | 2
B|-------------------------------------------------------------------| |
G|-------------------------------------------------------------------|_|
D|-------------------------------------------------------------------|
A|--2-2-2-2-2-2-2-2-2-2-2-2-2-2-2-2-5-5-5-5-5-5-5-5-5-5-5-5-5-5-5-5--|
E|--0-0-0-0-0-0-0-0-0-0-0-0-0-0-0-0-3-3-3-3-3-3-3-3-3-3-3-3-3-3-3-3--|

e|-------------------------------------------------------------------|
B|------------------9-9-9-9------------------------------------------|
G|----------8-8-8-8---------8-8-8-8-9-9-9-9-8-8-8-8------------------|_
D|--6-6-6-6-----------------------------------------9-9-9-9-6-6-6-6--| |
A|-------------------------------------------------------------------| |
E|-------------------------------------------------------------------| |
								        Riff
e|-------------------------------------------------------------------| | 3
B|-------------------------------------------------------------------| |
G|-------------------------------------------------------------------|_|
D|--9-9-9-9-9-9-9-9-9-9-9-9-8-8-8-8-6-6-6-6-5-5-5-5-5-5-5-5-5-5-5-5--|
A|-------------------------------------------------------------------|
E|-------------------------------------------------------------------|

e|-------------------------------------------------------------------|
B|-------------------------------------------------------------------|
G|-------------------------------------------------------------------|_
D|-------------------------------------------------------------------| |
A|--6-6-6-6-6-6-6-6-6-6-6-6-6-6-6-6-6-6-6-6-6-6-6-6-6-6-6-6-6-6-6-6--| |
E|--4-4-4-4-4-4-4-4-4-4-4-4-4-4-4-4-4-4-4-4-4-4-4-4-4-4-4-4-4-4-4-4--| |
									Riff
e|-------------------------------------------------------------------| | 5
B|-------------------------------------------------------------------| |
G|-------------------------------------------------------------------|_|
D|----------------------------------7-7-7-7-7-7-7-7-7-7-7-7-7-7-7-7--|
A|--9-9-9-9-9-9-9-9-9-9-9-9-9-9-9-9-5-5-5-5-5-5-5-5-5-5-5-5-5-5-5-5--|
E|--7-7-7-7-7-7-7-7-7-7-7-7-7-7-7-7----------------------------------|

e|-------------------------------------------------------------------|
B|-------------------------------------------------------------------|
G|-------------------------------------------------------------------| Riff
D|--------5-4--4--------5-4--4--------5-4--4--7--7---9-7--5----------|  6 
A|--2--2--3/2--2--2--2--3/2--2--2--2--3/2--2--5--5---7/5--3----------|
E|--0--0----------0--0----------0--0---------------------------------|

e|-------------------------------------------------------------------|
B|-------------------------------------------------------------------|
G|-------------------------------------------------------------------|_
D|--4---------------------------4------------------------------------| |
A|--2--2-2-2-2-2-2-2-2-2-2-2-2--2--2-2-2-2-2-2-2-2-2-2-2-2-----------| |
E|-------------------------------------------------------------------| |                         
									Riff
e|-------------------------------------------------------------------| | 7
B|-------------------------------------------------------------------| |
G|-------------------------------------------------------------------|_|
D|--4------------------------------6-----------6---------------------|
A|--2--2-2-2-2-2-2-2-2-2-2-2-2--5-----5-----5------------------------|
E|---------------------------------------4---------------------------|

e|-------------------------------------------------------------------|
B|-------------------------------------------------------------------|
G|-------------------------------------------------------------------|_
D|-------------------------------------------------------------------| |
A|--6-6-6-6-6-6-6-6-6-6-6-6-6-6-6-6-6-6-6-6-6-6-6-6-6-6-6-6-6-6-6-6--| |
E|--4-4-4-4-4-4-4-4-4-4-4-4-4-4-4-4-4-4-4-4-4-4-4-4-4-4-4-4-4-4-4-4--| |
									Riff
e|-------------------------------------------------------------------| | 8
B|-------------------------------------------------------------------| |
G|-------------------------------------------------------------------|_|
D|-------------------------------------------------------------------|
A|--5-5-5-5-5-5-5-5-5-5-5-5-5-5-5-5-5-5-5-5-5-5-5-5-5-5-5-5-5-5-5-5--|
E|--3-3-3-3-3-3-3-3-3-3-3-3-3-3-3-3-3-3-3-3-3-3-3-3-3-3-3-3-3-3-3-3--|

e|-------------------------------------------------------------------|
B|-------------------------------------------------------------------|
G|-------------------------------------------------------------------|_
D|-------------------------------------------------------------------| |
A|--6-6-6-6-6-6-6-6-6-6-6-6-6-6-6-6-6-6-6-6-6-6-6-6-6-6-6-6-6-6-6-6--| |
E|--4-4-4-4-4-4-4-4-4-4-4-4-4-4-4-4-4-4-4-4-4-4-4-4-4-4-4-4-4-4-4-4--| |
									Riff
e|-------------------------------------------------------------------| | 9
B|-------------------------------------------------------------------| |
G|-------------------------------------------------------------------|_|
D|-------------------------------------------------------------------|
A|--8-8-8-8-8-8-8-8-8-8-8-8-8-8-8-8-9-9-9-9-9-9-9-9-9-9-9-9-9-9-9-9--|
E|--6-6-6-6-6-6-6-6-6-6-6-6-6-6-6-6-7-7-7-7-7-7-7-7-7-7-7-7-7-7-7-7--|

e|-------------------------------------------------------------------|
B|-------------------------------------------------------------------|
G|-------------------------------------------------------------------| Riff
D|------------4-4-4--------5-5-5-5-5-5-5--7--------------------------|  10
A|--2--2-2-2--2-2-2-2-3-2--3-3-3-3-3-3-3--5--------------------------|
E|--0--0-0-0---------------------------------------------------------|

			Riff 1 + Riff 2		x 4 times
			Riff 3 + Riff 2		x 1
			Riff 3 + Riff 5		x 1
			Riff 1 + Riff 2		x 2
			Riff 6			x 6
			Riff 7			x 4
			Riff 1 + Riff 8		x 1
			Riff 1 + Riff 9		x 1
			Riff 1 + Riff 8		x 1
			Riff 1 + Riff 9		x 1
			Riff 3 + Riff 8		x 1
			Riff 3 + Riff 9		x 1
			Riff 10			x 6
			Riff 6			x 4
			Riff 1 + Riff 2		x 4			

| /  slide up
| \  slide down
| h  hammer-on
| p  pull-off
| ~  vibrato
| +  harmonic
| x  Mute note
===============================================================================
Suggest correction
What's this?
You can suggest a correction to this tab. Community and Mods will review your correction and vote to approve or reject it.
comments
We did not receive enough feedback on this tab! Please rate:
print report bad tab
1 2 3 4 5
guest
You may want to rate the tab now too:
select rating
Please do not post tabs as comments. Select "correction" instead!