Oops, an error
Loading. Please wait.

Carbon Tab

962 views 1 this week
no commentswrite comment
1 2 3 4 5
please rate
add to favorites
launch autoscroll
font size
0
reset
how to read this tab
guitar tuner
Autoscroll
slow
fast
+/-
esc
set tempo
stop
Help us to improve Ultimate-Guitar.com Take our survey!
×
Author
Watch My Dying
Carbon
Klausztrofónia

Tuning - A-D-G-C-E-A

Riff 1.
----------------/----------------/----------------/----------------/
----------------/----------------/----------------/----------------/
----------------/----------------/----------------/----------------/
2-2-2-2-2-2-2-2-/------2-2-2-2-2-/5-5-5-5-5-5-----/5-5-5-5-5-5-----/
2-2-2-2-2-2-2-2-/22222-2-2-2-2-2-/5-5-5-5-5-5-5555/3-3-3-3-3-3-3333/
0-0-0-0-0-0-0-0-/00000-0-0-0-0-0-/3-3-3-3-3-3-3333/3-3-3-3-3-3-3333/

----------------/----------------/----------------/----------------/2x
----------------/----------------/----------------/----------------/
----------------/----------------/----------------/----------------/
2-2-2-2-2-2-2-2-/------2-2-2-2-2-/5-5-5-5-5-5-----/5-5-5-5-5-5-----/
2-2-2-2-2-2-2-2-/22222-2-2-2-2-2-/5-5-5-5-5-5-5555/6-6-6-6-6-6-6666/
0-0-0-0-0-0-0-0-/00000-0-0-0-0-0-/3-3-3-3-3-3-3333/3-3-3-3-3-3-3333/

Verse 1.
----------------/----------------/----------------/----------------/
----------------/----------------/----------------/----------------/
----------------/----------------/----------------/----------------/
2-----2---------/2-----2---------/5-----5---------/5-----5---------/
2-2-2-2-2-------/2-2-2-2-2-------/5-5-5-5-5-------/5-5-5-5---------/
0-0-0-0-0-20304-/0-0-0-0-0-20304-/3-3-3-3-3-20304-/3-3-3-3-00304---/

----------------/----------------/----------------/----------------/2x
----------------/----------------/----------------/----------------/
----------------/----------------/----------------/----------------/
2-----2---------/2-----2---------/5-----5---------/5-----5---------/
2---x-2---------/2---x-2---------/5-5-5-5-5-------/5-5-5-5---------/
0---x-0-x-20304-/0---x-0-x-20304-/3-3-3-3-3-00304-/3-3-3-3-20304050/

Refrén 1.
----------------/----------------/----------------/----------------/
----------------/----------------/----------------/----------------/
----------------/----------------/----------------/----------------/
----------------/----------------/----------------/3-------3-------/
40300000403006-0/40300000403006-0/40300000403006-0/3-3-33-33-3-33-3/
----------------/----------------/----------------/1-1-11-11-1-11-1/

----------------/----------------/----------------/----------------/
----------------/----------------/----------------/----------------/
----------------/----------------/----------------/----------------/
4030000040300--0/4030000040300--0/4030000040300--0/3-------3-------/
-------------6--/-------------6--/-------------6--/3-3-33-33-3-33-3/
----------------/----------------/----------------/1-1-11-11-1-11-1/

----------------/----------------/----------------/----------------/
----------------/----------------/----------------/----------------/
----------------/----------------/----------------/----------------/
----------------/----------------/----------------/5---------------/
-------------6--/-------------6--/-------------6--/5---------------/
4030000040300--0/4030000040300--0/4030000040300--0/3---------------/

Akusztikus Verse 1. (C-major/A-moll improvizáció)

Riff 1. (énekkel, a végén kiállással)

Akusztikus Verse 2. (C-major/A-moll improvizáció)

Refrén 2.
----------------/----------------/----------------/----------------/
----------------/----------------/----------------/----------------/
----------------/----------------/----------------/----------------/
-------------6--/-------------6--/-------------6--/3-------3-------/
4030000040300--0/4030000040300--0/4030000040300--0/3-3-33-33-3-33-3/
----------------/----------------/----------------/1-1-11-11-1-11-1/

----------------/----------------/----------------/----------------/
----------------/----------------/----------------/----------------/
----------------/----------------/----------------/----------------/
40300000403006-0/40300000403006-0/40300000403006-0/3-------3-------/
----------------/----------------/----------------/3-3-33-33-3-33-3/
----------------/----------------/----------------/1-1-11-11-1-11-1/

----------------/----------------/----------------/----------------/
----------------/----------------/----------------/----------------/
----------------/----------------/----------------/----------------/
-------------6--/-------------6--/-------------6--/5---------------/
----------------/----------------/----------------/5---------------/
4030000040300--0/4030000040300--0/4030000040300--0/3---------------/

Verse 1. (szólókíséret, a végén kiállással)







Refrén 3.
----------------/----------------/----------------/----------------/
----------------/----------------/----------------/----------------/
-------------6--/-------------6--/-------------6--/----------------/
----------------/----------------/----------------/3-------3-------/
4030000040300--0/4030000040300--0/4030000040300--0/3-3-33-33-3-33-3/
----------------/----------------/----------------/1-1-11-11-1-11-1/

----------------/----------------/----------------/----------------/
----------------/----------------/----------------/----------------/
-------------6--/-------------6--/-------------6--/----------------/
4030000040300--0/4030000040300--0/4030000040300--0/3-------3-------/
----------------/----------------/----------------/3-3-33-33-3-33-3/
----------------/----------------/----------------/1-1-11-11-1-11-1/

----------------/----------------/----------------/----------------/
----------------/----------------/----------------/----------------/
-------------6--/-------------6--/-------------6--/----------------/
----------------/----------------/----------------/5---------------/
----------------/----------------/----------------/5---------------/
4030000040300--0/4030000040300--0/4030000040300--0/3---------------/
Suggest correction
Give kudos to tab author, rate the tab!
1 2 3 4 5
comments
print report bad tab
guest
You may want to rate the tab now too:
select rating
Please do not post tabs as comments. Select "correction" instead!