Oops, an error
Loading. Please wait.

Idomtalan Tab

178 views 1 this week
no commentswrite comment
1 2 3 4 5
please rate
add to favorites
launch autoscroll
font size
0
reset
how to read this tab
guitar tuner
Tab Pro tools
  • play this tab
  • loop segment
  • change instrument
  • show fretboard
  • metronome
×
Best way to learn
"Idomtalan"
Autoscroll
slow
fast
+/-
esc
set tempo
stop
Contributor
Difficulty
novice
Watch My Dying
Idomtalan
Klausztrofónia

Tune - A-D-G-C-E-A

Riff 1.

----------------/----------------/----------------/----------------/
----------------/----------------/----------------/----------------/
----------------/----------------/----------------/----------------/
----------------/----------------/----------------/----------------/
------------555-/----------------/555-------------/----555---------/
000-333-444-----/222-000-333-444-/----222-000-333-/444-----222-000-/

----------------/----------------/----------------/----------------/
----------------/----------------/----------------/----------------/
----------------/----------------/----------------/----------------/
----------------/----------------/----------------/----------------/
--------555-----/------------555-/----------------/555-------------/
333-444-----222-/000-333-444-----/222-000-333-444-/----222-000-333-/

----------------/----------------/----------------/----------------/
----------------/----------------/----------------/----------------/
----------------/----------------/----------------/----------------/
----------------/----------------/----------------/----------------/
----555---------/--------555-----/------------555-/----------------/
444-----222-000-/333-444-----222-/000-333-444-----/222-000-333-444-/

----------------/----------------/----------------/----------------/
----------------/----------------/----------------/----------------/
----------------/----------------/----------------/----------------/
----------------/----------------/----------------/----------------/
555-------------/----555---------/--------555-----/------------555-/
----222-000-333-/444-----222-000-/333-444-----222-/000-333-444-----/

Bridge 1./A
--------/--------/----------/--------/--------/--------/
--------/--------/----------/--------/--------/--------/
--------/----6---/----------/--------/----4---/--------/
4-------/000-----/----000-00/5-------/000-----/----000-/
--------/000-4---/----000-00/--------/000-2---/----000-/
2-------/000-----/----000-00/3-------/000-----/----000-/


--------/----------/--------/--------/----------/--------/
--------/----------/--------/--------/----------/--------/
--------/------6---/--------/--------/------4---/--------/
4-------/000-00----/----000-/5-------/000-0-----/----555-/
--------/000-004---/----000-/--------/000-0-2---/----555-/
2-------/000-00----/----000-/3-------/000-0-----/----333-/

Bridge 1./B
5-------/--------/----------/--------/--------/--------/
--------/--------/----------/--------/--------/--------/
2-------/--------/----------/3-------/--------/--------/
--------/000-4---/----000-00/--------/000-5---/----000-/
--------/000-----/----000-00/1-------/000-----/----000-/
--------/000-2---/----000-00/--------/000-3---/----000-/

5-------/----------/--------/--------/----------/--------/
--------/----------/--------/--------/----------/--------/
2-------/----------/--------/3-------/----------/--------/
--------/000-004---/----000-/--------/000-0-5---/----555-/
--------/000-00----/----000-/1-------/000-0-----/----555-/
--------/000-002---/----000-/--------/000-0-3---/----333-/

Riff 1. (első két sor után 2/8 szünet)

Bridge 2./A
--------/--------/----------/--------/--------/--------/
--------/--------/----------/--------/--------/--------/
--------/----6---/----------/--------/----4---/--------/
4-------/000-----/----000-00/5-------/000-----/----000-/
--------/000-4---/----000-00/--------/000-2---/----000-/
2-------/000-----/----000-00/3-------/000-----/----000-/

--------/----------/--------/--------/--------/--------/
--------/----------/--------/--------/--------/--------/
--------/------6---/--------/--------/----4---/--------/
4-------/000-00----/----000-/5-------/000-----/----555-/
--------/000-004---/----000-/--------/000-2---/----555-/
2-------/000-00----/----000-/3-------/000-----/----333-/

Bridge 2./B
5-------/--------/----------/--------/--------/--------/
--------/--------/----------/--------/--------/--------/
2-------/--------/----------/3-------/--------/--------/
--------/000-4---/----000-00/--------/000-5---/----000-/
--------/000-----/----000-00/1-------/000-----/----000-/
--------/000-2---/----000-00/--------/000-3---/----000-/




5-------/----------/--------/--------/--------/--------/
--------/----------/--------/--------/--------/--------/
2-------/----------/--------/3-------/--------/--------/
--------/000-004---/----000-/--------/000-5---/----555-/
--------/000-00----/----000-/1-------/000-----/----555-/
--------/000-002---/----000-/--------/000-3---/----333-/

Refrén (a másik szólam ua. 1 oktávval feljebb)
------------/------------/------------/------------/2x
------------/------------/------------/------------/
------------/------------/5-5----5----/4-4----4----/
4-4----4----/5-5----5----/---4-4--4-4-/---2-2--2-2-/
---3-3--3-3-/---3-3--3-3-/-2--2-2--2-2/-3--3-3--3-3/
-2--2-2--2-2/-3--3-3--3-3/------------/------------/

Kiállás 1. (akusztikus akkordokkal)
5-----------/------------/------------/------------/
3-----------/------------/------------/------------/
3-----------/------------/------------/------------/
5-----------/------------/------------/------------/
------------/2222--222222/2-----------/2222--222222/
------------/0000--000000/0-----------/0000--000000/

3-----------/------------/------------/------------/
5-----------/------------/------------/------------/
3-----------/------------/------------/------------/
5-----------/------------/------------/------------/
------------/2222--222222/2-----------/2222--222222/
------------/0000--000000/0-----------/0000--000000/

Középrész 1.
------------/------------/------------/------------/4x
------------/------------/------------/------------/
------0-----/------------/------0-----/------------/
0--0--0-----/------------/0--0--0-----/------------/
0--0--1-----/2222--222222/0--0--1-----/2222--222222/
0--2--3-----/0000--000000/0--2--3-----/0000--000000/

Középrész 2. (két szólamban)
------------/------------/------------/------------/2x
3--5--6-----/------------/3--5--6-----/------------/
------------/------------/------------/------------/
2--4--5-----/------------/2--4--5-----/------------/
------------/2222--222222/------------/2222--222222/
------------/0000--000000/------------/0000--000000/





Kiállás 2.
---------------/---------/
---------------/---------/
---------------/---------/
---5555--555555/5--5555--/
2--3333--333333/3--3333--/
0--------------/---------/

Riff 1. (szólókíséret)

Bridge 3./A
--------/--------/--------/--------/--------/--------/
--------/--------/--------/--------/--------/--------/
--------/----6---/--------/--------/----4---/--------/
4-------/000-----/----000-/5-------/000-----/----000-/
--------/000-4---/----000-/--------/000-2---/----000-/
2-------/000-----/----000-/3-------/000-----/----000-/

--------/--------/--------/--------/--------/--------/
--------/--------/--------/--------/--------/--------/
--------/----6---/--------/--------/----4---/--------/
4-------/000-----/----000-/5-------/000-----/----555-/
--------/000-4---/----000-/--------/000-2---/----555-/
2-------/000-----/----000-/3-------/000-----/----333-/

Bridge 3./B
5-------/--------/--------/--------/--------/--------/
--------/--------/--------/--------/--------/--------/
2-------/--------/--------/3-------/--------/--------/
--------/000-4---/----000-/--------/000-5---/----000-/
--------/000-----/----000-/1-------/000-----/----000-/
--------/000-2---/----000-/--------/000-3---/----000-/

5-------/--------/--------/--------/--------/--------/
--------/--------/--------/--------/--------/--------/
2-------/--------/--------/3-------/--------/--------/
--------/000-4---/----000-/--------/000-5---/----555-/
--------/000-----/----000-/1-------/000-----/----555-/
--------/000-2---/----000-/--------/000-3---/----333-/

Refrén
comments
We did not receive enough feedback on this tab! Please rate:
print report bad tab
1 2 3 4 5
I want to post or [tab]
guest
You may want to rate the tab now too:
select rating
Please do not post tabs as comments. Select "correction" instead!