Oops, an error
Loading. Please wait.

Mathematica Calculis Bass Tab

19 views 3 this week
no commentswrite comment
1 2 3 4 5
2 more votes to show rating
add to favorites
launch autoscroll
font size
0
reset
guitar tuner
Autoscroll
slow
fast
+/-
esc
set tempo
stop
Help us to improve Ultimate-Guitar.com Take our survey!
×
Author
Difficulty
advanced
About this tab version
Bass tab for "Mathematica Calculis" by Watchtower. Was this info helpful? Yes No
Band: Watchtower
Album: Concepts of Math: Book One
Song: Mathematica Calculis
Tab: Bass
Tabbed by: muberal

This track is very long. To make this tab easier to navigate, I've included the different section names aswell
as riff numbers.

It's likely that this track was played with a 5-string bass as some of the licks seem to be almost impossible
on a 4-string bass. That would require very fast and precise movements on the fretboard.

Hammer-Ons/Pull-offs are not noted in this tab, though very likely used during the fast licks.

[Instrumental I]

Tempo: 145bpm

(Riff 1.1)

15/8

G|-------------------------------------------------|
D|-----------3-----------------5-------------------|
A|--------1-----1-----------3-----3-----------5----|
E|--0--2-----------2--0--4-----------4--0--6-------|

(Riff 2.1)

5/8

G|-------------------|-------------------|-------------------|-------------------|
D|--7----------------|--6----------------|--5----------------|--4----------------|
A|-----5-------------|-----4-------------|-----3-------------|-----2-------------|
E|--------6--5--0----|--------5--4--0----|--------4--3--0----|--------3--2--0----|

(Riff 3.1)

4/4                            5/4

G|--------------2-------------|--------------3-------------------|-------------------|
D|----------------------------|----------------------------------|-------------------|
A|----------------------------|----------------------------------|-2-----------------|
E|--2--2-----2----------------|--2--1-----1-----------0-----0----|-0-----------------|

(Riff 3.2) The time signatures add up to 14/4, just like Riff 3.1. The last three notes are 8th triplets.

4/4                       7/8      13/8

G|--------------2--------|--------|-15-13----13-15-16-15-13----16-15-13--------------------------------------|
D|-----------------------|--------|-------14----------------14----------14-----------------------------------|
A|-----------------------|--------|----------------------------------------14-13-11----14-13-11--------------|
E|--2--2-----2-----------|--2--1--|-------------------------------------------------12----------12-7-6--4--0-|

(Riff 3.1)

4/4                            5/4

G|--------------2-------------|--------------3-------------------|-------------------|
D|----------------------------|----------------------------------|-------------------|
A|----------------------------|----------------------------------|-2-----------------|
E|--2--2-----2----------------|--2--1-----1-----------0-----0----|-0-----------------|

(Riff 3.3) shortened version of Riff 3.1

4/4                            7/8

G|--------------2-------------|--------------3-----|
D|----------------------------|--------------------|
A|----------------------------|--------------------|
E|--2--2-----2----------------|--2--1-----1--------|

Tempo: 110bpm

(Riff 4.1)

7/8                                                                                 4/8

G|----------------------------------------|----------------------------------------|-------------------------|
D|----------------------------------------|----------------------------------------|-------------------------|
A|---------------------------------6------|---------------------------------6------|-----------------6-------|
E|--0------0--0-----0-----0-----0---------|--0------0--0-----0-----0-----0---------|--0--0--0--0--0----------|

(Riff 4.2)

7/8                                                                                 4/8

G|----------------------------------------|----------------------------------------|-------------------------|
D|----------------------------------------|----------------------------------------|-------------------------|
A|---------------------------------6------|---------------------------------6------|-------------------------|
E|--0------0--0-----0-----0-----0---------|--0------0--0-----0-----0-----0---------|--0--0--0--0--2--3-------|

(Riff 4.3) play two times

7/8                                                                                 4/8

G|----------------------------------------|----------------------------------------|-------------------------|
D|----------------------------------------|----------------------------------------|-------------------------|
A|---------------------------------4------|---------------------------------4------|-------------------------|
E|--3---------------3--3--3-----3---------|--3---------------3--3--3-----3---------|--3--3--3--3--3--4-------|

Tempo: 145bpm

(Riff 2.2) The only difference to Riff 2.1 is the last note.

5/8

G|-------------------|-------------------|-------------------|-------------------|
D|--7----------------|--6----------------|--5----------------|--4----------------|
A|-----5-------------|-----4-------------|-----3-------------|-----2-------------|
E|--------6--5--0----|--------5--4--0----|--------4--3--0----|--------3--2--1----|

Tempo: 110bpm

(Riff 4.1)

7/8                                                                                 4/8

G|----------------------------------------|----------------------------------------|-------------------------|
D|----------------------------------------|----------------------------------------|-------------------------|
A|---------------------------------6------|---------------------------------6------|-----------------6-------|
E|--0------0--0-----0-----0-----0---------|--0------0--0-----0-----0-----0---------|--0--0--0--0--0----------|

(Riff 4.2)

7/8                                                                                 4/8

G|----------------------------------------|----------------------------------------|-------------------------|
D|----------------------------------------|----------------------------------------|-------------------------|
A|---------------------------------6------|---------------------------------6------|-------------------------|
E|--0------0--0-----0-----0-----0---------|--0------0--0-----0-----0-----0---------|--0--0--0--0--2--3-------|

(Riff 4.4)

7/8                                                                                 4/8

G|----------------------------------------|----------------------------------------|-------------------------|
D|----------------------------------------|----------------------------------------|--5-----------5----------|
A|---------------------------------4------|---------------------------------4------|-------------------------|
E|--3---------------3--3--3-----3---------|--3---------------3--3--3-----3---------|-----3--3--3-----4-------|

(Riff 4.5)

7/8                                                                                 4/8

G|----------------------------------------|----------------------------------------|-------------------------|
D|----------------------------------------|----------------------------------------|--5--5--5--5--5----------|
A|---------------------------------4------|---------------------------------4------|-------------------------|
E|--3---------------3--3--3-----3---------|--3---------------3--3--3-----3---------|-----------------4-------|

(Riff 5.1)

11/8

G|----------------------------------------------------------------------|
D|--------------1--1--1--1--1>------------------------------------------|
A|--3--3--3--3-----------------------------------------------2----------|
E|-----------------------------2--2--2--1--1--1--1--4--4--4-------------|

(Riff 5.2)

G|----------------------------------------------------------------------|
D|--------------1--1--1--1----------------------------------------------|
A|--3--3--3--3--------------------------------------------------1--1----|
E|-----------------------------2--2--2--------2--2--2--2----------------|

(Riff 5.3)

G|----------------------------------------------------------------------|
D|--------------1--1--1--1----------------------------------------------|
A|--3--3--3--3-----------------------------------------------2----------|
E|-----------------------------2--2--2--1--1--1--1--4--4--4-------------|

(Riff 5.4)

G|----------------------------------------------------------------------|
D|--------------1--1--1--1----------------------------------------------|
A|--3--3--3--3--------------------------------------------------2--2----|
E|-----------------------------2--2--2--------4--4--4--4----------------|

(Riff 5.3)

G|----------------------------------------------------------------------|
D|--------------1--1--1--1----------------------------------------------|
A|--3--3--3--3-----------------------------------------------2----------|
E|-----------------------------2--2--2--1--1--1--1--4--4--4-------------|

(Riff 5.2)

G|----------------------------------------------------------------------|
D|--------------1--1--1--1----------------------------------------------|
A|--3--3--3--3--------------------------------------------------1--1----|
E|-----------------------------2--2--2--------2--2--2--2----------------|

(Riff 5.3)

G|----------------------------------------------------------------------|
D|--------------1--1--1--1----------------------------------------------|
A|--3--3--3--3-----------------------------------------------2----------|
E|-----------------------------2--2--2--1--1--1--1--4--4--4-------------|

(Riff 5.4)

G|----------------------------------------------------------------------|
D|--------------1--1--1--1----------------------------------------------|
A|--3--3--3--3--------------------------------------------------2--2----|
E|-----------------------------2--2--2--------4--4--4--4----------------|

(Riff 6.1) play 2 times

3/4

G|----------------------------------------|----------------------------------------|
D|----------------------------------------|----------------------------------------|
A|--2--2--2--2--2--2--2--3----------------|--2--2--2--2--2--2--2--3----------------|
E|----------------------------------------|----------------------------------------|

G|----------------------------------------|----------------------------------------|
D|----------------------------------------|----------------------------------------|
A|--0--0--0--0--0--1----------------------|--0--0--0--0--0--1----------------------|
E|----------------------------------------|----------------------------------------|

[I - Origin]

(Riff 6.1) play 2 times

G|----------------------------------------|----------------------------------------|
D|----------------------------------------|----------------------------------------|
A|--2--2--2--2--2--2--2--3----------------|--2--2--2--2--2--2--2--3----------------|
E|----------------------------------------|----------------------------------------|

G|----------------------------------------|----------------------------------------|
D|----------------------------------------|----------------------------------------|
A|--0--0--0--0--0--1----------------------|--0--0--0--0--0--1----------------------|
E|----------------------------------------|----------------------------------------|

(Riff 6.2)

G|----------------------------------------|----------------------------------------|
D|--4-------------------------------------|----------------------------------------|
A|--2-------------------------------------|----------------------------------------|
E|----------------------------------------|----------------------------------------|

G|----------------------------------------|----------------------------------------|
D|----------------------------------------|----------------------------------------|
A|--0--0--0--0--0--1----------------------|--0--0--0--0--0--1----------------------|
E|----------------------------------------|----------------------------------------|

(Riff 6.3)

G|----------------------------------------|----------------------------------------|
D|--4-------------------------------------|----------------------------------------|
A|--2-------------------------------------|----------------------------------------|
E|----------------------------------------|----------------------------------------|

G|----------------------------------------|-----------------2--3-------------------|
D|----------------------------------------|-----------------------1--4-------------|
A|--0--0--0--0--0--1----------------------|--0--0--0--0--0--------------0--1--0----|
E|----------------------------------------|----------------------------------------|

[II - Translating Nature into Numbers]

(Riff 7.1)

9/8

G|----------------------------------------------------------|
D|----------------------------------------------------------|
A|-----------------------------------------------5--5--5----|
E|--0--0--0--0--0--0--0--0--0--0--0--0--3--3--3-------------|

G|----------------------------------------------------------|
D|----------------------------------------------------------|
A|--4-----4--4--4--4--4--4--4--4--4--4--3--3--3--2--2--2----|
E|----------------------------------------------------------|

(Riff 7.2) The only difference is the first note being an 8th instead of two 16th

9/8

G|----------------------------------------------------------|
D|----------------------------------------------------------|
A|-----------------------------------------------5--5--5----|
E|--0-----0--0--0--0--0--0--0--0--0--0--3--3--3-------------|

G|----------------------------------------------------------|
D|----------------------------------------------------------|
A|--4-----4--4--4--4--4--4--4--4--4--4--3--3--3--2--2--2----|
E|----------------------------------------------------------|

(Riff 7 Interlude 1)

3/8

G|----------------------|
D|--2--0-----------0----|
A|--------3--2--3-------|
E|----------------------|

(Riff 7.2) play two times

9/8

G|----------------------------------------------------------|
D|----------------------------------------------------------|
A|-----------------------------------------------5--5--5----|
E|--0-----0--0--0--0--0--0--0--0--0--0--3--3--3-------------|

G|----------------------------------------------------------|
D|----------------------------------------------------------|
A|--4-----4--4--4--4--4--4--4--4--4--4--3--3--3--2--2--2----|
E|----------------------------------------------------------|

(Riff 7 Interlude 1)

3/8

G|----------------------|
D|--2--0-----------0----|
A|--------3--2--3-------|
E|----------------------|

(Riff 7.3)

9/8

G|----------------------------------------------------------|
D|--2--3--0--2-----0--2--5--2--3--2--0--2--0-----------0----|
A|--------------3-----------------------------3--2--3-------|
E|----------------------------------------------------------| x2

(Riff 7 Interlude 1)

3/8

G|----------------------|
D|--2--0-----------0----|
A|--------3--2--3-------|
E|----------------------|

(Short Lick 1)

21/16

G|--9-10-9------9---------------------------------------------------------------|
D|----------12-----10--12--9-----9----------------------------------------------|
A|----------------------------12---12--10--12--8--10--7--5-7-5-----5------------|
E|--------------------------------------------------------------8-----7--8--5---|

(Riff 8.1)

15/16                                               16/16

G|-------------------------------------------------|----------------------------------------------------|
D|-------------------------------------------------|----------------------------------------------------|
A|-----------5--5--5-------------------------------|-----------5--5--5----------------------------------|
E|--4--4--4-----------4--4--4--4--4--4--5--7--5----|--4--4--4-----------4--4--4--4--4--4--5--7--5--4----|

(Riff 8.2) The second-to-last note of the first measure is the only change.

15/16                                               16/16

G|-------------------------------------------------|----------------------------------------------------|
D|-------------------------------------------------|----------------------------------------------------|
A|-----------5--5--5-------------------------------|-----------5--5--5----------------------------------|
E|--4--4--4-----------4--4--4--4--4--4--5--5--5----|--4--4--4-----------4--4--4--4--4--4--5--7--5--4----|

[III - Addition, Multiplication, Subtraction, Division]

(Riff 8.2)

15/16                                               16/16

G|-------------------------------------------------|----------------------------------------------------|
D|-------------------------------------------------|----------------------------------------------------|
A|-----------5--5--5-------------------------------|-----------5--5--5----------------------------------|
E|--4--4--4-----------4--4--4--4--4--4--5--5--5----|--4--4--4-----------4--4--4--4--4--4--5--7--5--4----|

(Riff 8.3) extended version of Riff 8.2.

15/16                                               18/16

G|-------------------------------------------------|-------------------------------------------------------|
D|-------------------------------------------------|-------------------------------------------------------|
A|-----------5--5--5-------------------------------|-----------5--5--5-------------------------------------|
E|--4--4--4-----------4--4--4--4--4--4--5--5--5----|--4--4--4-----------4--4--4--4--4--4--5--7--5--4--5----|

(Riff 8.4)

15/16                                               16/16

G|-------------------------------------------------|----------------------------------------------------|
D|-------------------------------------------------|----------------------------------------------------|
A|--------------------------0--------------0-------|--------------------------0--------------0-----0----|
E|--1--1--1--1-----1-----1--------1--1--1----------|--1--1--1--1-----1-----1--------1--1--1-------------|

(Riff 8.5) shortened version of Riff 8.4.

15/16                                               13/16

G|-------------------------------------------------|------------------------------------------|
D|-------------------------------------------------|------------------------------------------|
A|--------------------------0--------------0-------|--------------------------0---------------|
E|--1--1--1--1-----1-----1--------1--1--1----------|--1--1--1--1-----1-----1--------1--1--1---|

(Riff 8.1)

15/16                                               16/16

G|-------------------------------------------------|----------------------------------------------------|
D|-------------------------------------------------|----------------------------------------------------|
A|-----------5--5--5-------------------------------|-----------5--5--5----------------------------------|
E|--4--4--4-----------4--4--4--4--4--4--5--7--5----|--4--4--4-----------4--4--4--4--4--4--5--7--5--4----|

(Riff 8.2) play two times

15/16                                               16/16

G|-------------------------------------------------|----------------------------------------------------|
D|-------------------------------------------------|----------------------------------------------------|
A|-----------5--5--5-------------------------------|-----------5--5--5----------------------------------|
E|--4--4--4-----------4--4--4--4--4--4--5--5--5----|--4--4--4-----------4--4--4--4--4--4--5--7--5--4----|

(Riff 8.3)

15/16                                               18/16

G|-------------------------------------------------|-------------------------------------------------------|
D|-------------------------------------------------|-------------------------------------------------------|
A|-----------5--5--5-------------------------------|-----------5--5--5-------------------------------------|
E|--4--4--4-----------4--4--4--4--4--4--5--5--5----|--4--4--4-----------4--4--4--4--4--4--5--7--5--4--5----|

(Riff 8.6) like Riff 8.5 but with the time signatures of Riff 8.4.

15/16                                               16/16

G|-------------------------------------------------|---------------------------------------------|
D|-------------------------------------------------|---------------------------------------------|
A|--------------------------0--------------0-------|--------------------------0------------------|
E|--1--1--1--1-----1-----1--------1--1--1----------|--1--1--1--1-----1-----1--------1--1--1------|

(Riff 8.7)

21/16

G|-------------------------------------------------------------------|
D|-------------------------------------------------------------------|
A|-------------------------------------------------------------------|
E|--1--1--1--1-----1-----1--1-----------1--1--1-----1--1-------------|

17/16

G|-------------------------------------------------------|
D|-------------------------------------------------------|
A|-------------------------------------------------------|
E|--1--1--1--1-----1-----1--1-----------1--1--1-----1----|

[Instrumental II]

Tempo: 145bpm

Extension of Riff 8.7 into the second instrumental part.

10/8

G|---------------------|
D|---------------------|
A|---------------------|
E|--1------------------|

One empty measure of 8/8.
One empty measure of 13/8.
One empty measure of 10/8.
One empty measure of 8/8.
One empty measure of 13/8.

(Riff 9.1)

10/8                                 8/8                        13/8

G|---------------------------------|--------------------------|----------------------------------------------|
D|---------------------------------|--------------------------|----------------------------------------------|
A|----------------------------5----|--------------------------|-----------------------------5----------------|
E|--0--2--3--2---------------------|------------------3--2----|-----3--3-----3--2-----3--2--------2--3-------|

(Riff 9.2)

10/8                                 8/8                        13/8

G|---------------------------------|--------------------------|----------------------------------------------|
D|---------------------------------|--------------------------|--4-5-4-2-------------------------------------|
A|----------------------------5----|--------------------------|-------------4-5-4-2-0-2-0-------5------------|
E|--0--2--3--2---------------------|------------------3--2----|---------------------------2-2-2-------2--3---|

(Riff 10.1)

19/8

G|-------------------------------------------------------------|
D|-----------------------------------------------4--2----------|
A|-----------------------------------------------------3--2----|
E|-----2--3-----2--0-----2--3-----2-----2--3-------------------| x2

(Riff 10.2)

G|-------------------------------------------------------------|
D|-------------------------------------------------------------|
A|-----5--6-----5--3-----5--6-----5-----5--6-----5--3-----3----|
E|-------------------------------------------------------------|

G|-------------------------------------------------------------|
D|-------------------------------------------------------------|
A|-----5--6-----5--3-----5--6-----5-----5--6-----5--3----------|
E|-------------------------------------------------------------|

(Riff 9.3) play two times

10/8                                 8/8                          13/8

G|----------------------------------|----------------------------|-------------------------------------------|
D|-----------4-----4-----------0----|-----------4-----4----------|-----------4-----4-----------0-------------|
A|----------------------------------|----------------------------|-------------------------------------------|
E|--0--2--3-----------3--2--0-------|--0--2--3-----------3--2----|--0--2--3-----------3--2--0-----0--2--3----|

[IV - Geometry Part 1]

(Riff 10.3)

19/8

G|-----------------------7--------------------------------7----|
D|--------------------5-----5--4-----------4--5-----4--5-------|
A|-----2--------------------------2-----2----------------------|
E|--0-----2--3--0--2-----------------0-----------0-------------|

G|-----------------------7--------------------------------7----|
D|--------4--5--------5-----5--4-----------4--5-----4--5-------|
A|-----2--------------------------2-----2----------------------|
E|--0-----------0--2-----------------0-----------0-------------|

(Riff 10.4) Note the 5th note of the second part, it's different.

G|-------------------------------------------------------------|
D|-----------------------8--------------------------------8----|
A|-----3--5--6-----5--6-----6--5--3-----3--5--6-----5--6-------|
E|--3-----------4--------------------3-----------3-------------|

G|-------------------------------------------------------------|
D|-----------------------8-------------------------------------|
A|-----3--5--6-----5--6-----6--5--3-----3--5--6-----5----------|
E|--3-----------3--------------------3-----------3-------------|

(Riff 9.4) play two times

10/8                                 8/8                          13/8

G|----------------------------------|-----------------------------|------------------------------------------|
D|-----------4-4----4-----------0---|-----------4-4-----4---------|-----------4-4----4-----------0-----------|
A|---------------2------------------|----------------2------------|---------------2--------------------------|
E|--0--2--3------------3--2--0------|--0--2--3-------------3--2---|--0--2--3------------3--2--0-----0--2--3--|

[IV - Geometry Part 2]

(Riff 10.3)

19/8

G|-----------------------7--------------------------------7----|
D|--------------------5-----5--4-----------4--5-----4--5-------|
A|-----2--------------------------2-----2----------------------|
E|--0-----2--3--0--2-----------------0-----------0-------------|

G|-----------------------7--------------------------------7----|
D|--------4--5--------5-----5--4-----------4--5-----4--5-------|
A|-----2--------------------------2-----2----------------------|
E|--0-----------0--2-----------------0-----------0-------------|

(Riff 10.5) 

G|-------------------------------------------------------------|
D|-----------------------8--------------------------------8----|
A|-----3--5--6-----5--6-----6--5--3-----3--5--6-----5--6-------|
E|--3-----------3--------------------3-----------3-------------| x2

(Riff 9.5) shortened version of Riff 9.3.

13/8

G|-------------------------------------------|
D|-----------4-----4-----------0-------------|
A|-------------------------------------------|
E|--0--2--3-----------3--2--0-----0--2--3----|

[V - Number line Part 1]

(Riff 3.4) play two times

4/4                            5/4

G|--------------2-------------|--------------3-----3-------------|-------------------|
D|----------------------------|----------------------------------|-------------------|
A|----------------------------|----------------------------------|-2-----------------|
E|--2--2--2--2-------------2--|--2--1-----1-----------0-----0----|-0-----------------|

(Riff 3.5) The first three notes are quarter triplets.

4/4                            5/4

G|--------------2-------------|--------------3-----3-------------|-------------------|
D|----------------------------|----------------------------------|-------------------|
A|----------------------------|----------------------------------|-2-----------------|
E|---2---2---2-------------2--|--2--1--1--1-----------0--0--0----|-0-----------------|

(Riff 3.4)

4/4                            5/4

G|--------------2-------------|--------------3-----3-------------|-------------------|
D|----------------------------|----------------------------------|-------------------|
A|----------------------------|----------------------------------|-2-----------------|
E|--2--2--2--2-------------2--|--2--1-----1-----------0-----0----|-0-----------------|

[V - Number line Part 2]

(Riff 11.1)

15/8

G|-------------------------------------------------|
D|-------------------------------------------------|
A|-----------1-----1-----------3-----3--------5----|
E|--2--2--2--2--------4--4--4--4--------6--6-------| x2

(Riff 11.2)

G|-------------------------------------------------|
D|-------------------------------------------------|
A|--------------1-----------------3-----------5----|
E|--2--2-----2--2-----4--4-----4--4-----6--6-------| x2

[Instrumental III]

(Riff 2.3) One added measure.

5/8

G|-------------------|-------------------|-------------------|-------------------|-------------------|
D|--8----------------|--7----------------|--6----------------|--5----------------|--4----------------|
A|-----6-------------|-----5-------------|-----4-------------|-----3-------------|-----2-------------|
E|--------7--6--0----|--------6--5--0----|--------5--4--0----|--------4--3--0----|--------3--2--1----|

Tempo: 110bpm

(Riff 4.1)

7/8                                                                                 4/8

G|----------------------------------------|----------------------------------------|-------------------------|
D|----------------------------------------|----------------------------------------|-------------------------|
A|---------------------------------6------|---------------------------------6------|-----------------6-------|
E|--0------0--0-----0-----0-----0---------|--0------0--0-----0-----0-----0---------|--0--0--0--0--0----------|

(Riff 4.2)

7/8                                                                                 4/8

G|----------------------------------------|----------------------------------------|-------------------------|
D|----------------------------------------|----------------------------------------|-------------------------|
A|---------------------------------6------|---------------------------------6------|-------------------------|
E|--0------0--0-----0-----0-----0---------|--0------0--0-----0-----0-----0---------|--0--0--0--0--2--3-------|

(Riff 4.3) play two times

7/8                                                                                 4/8

G|----------------------------------------|----------------------------------------|-------------------------|
D|----------------------------------------|----------------------------------------|-------------------------|
A|---------------------------------4------|---------------------------------4------|-------------------------|
E|--3---------------3--3--3-----3---------|--3---------------3--3--3-----3---------|--3--3--3--3--3--4-------|

Tempo: 145bpm

(Riff 2.2)

5/8

G|-------------------|-------------------|-------------------|-------------------|
D|--7----------------|--6----------------|--5----------------|--4----------------|
A|-----5-------------|-----4-------------|-----3-------------|-----2-------------|
E|--------6--5--0----|--------5--4--0----|--------4--3--0----|--------3--2--1----|

(Riff 4.1)

7/8                                                                                 4/8

G|----------------------------------------|----------------------------------------|-------------------------|
D|----------------------------------------|----------------------------------------|-------------------------|
A|---------------------------------6------|---------------------------------6------|-----------------6-------|
E|--0------0--0-----0-----0-----0---------|--0------0--0-----0-----0-----0---------|--0--0--0--0--0----------|

(Riff 4.2)

7/8                                                                                 4/8

G|----------------------------------------|----------------------------------------|-------------------------|
D|----------------------------------------|----------------------------------------|-------------------------|
A|---------------------------------6------|---------------------------------6------|-------------------------|
E|--0------0--0-----0-----0-----0---------|--0------0--0-----0-----0-----0---------|--0--0--0--0--2--3-------|

(Riff 4.3) play two times

7/8                                                                                 4/8

G|----------------------------------------|----------------------------------------|-------------------------|
D|----------------------------------------|----------------------------------------|-------------------------|
A|---------------------------------4------|---------------------------------4------|-------------------------|
E|--3---------------3--3--3-----3---------|--3---------------3--3--3-----3---------|--3--3--3--3--3--4-------|

(Riff 5.3)

11/8

G|----------------------------------------------------------------------|
D|--------------1--1--1--1----------------------------------------------|
A|--3--3--3--3-----------------------------------------------2----------|
E|-----------------------------2--2--2--1--1--1--1--4--4--4-------------|

(Riff 5.2)

G|----------------------------------------------------------------------|
D|--------------1--1--1--1----------------------------------------------|
A|--3--3--3--3--------------------------------------------------1--1----|
E|-----------------------------2--2--2--------2--2--2--2----------------|

(Riff 5.3)

G|----------------------------------------------------------------------|
D|--------------1--1--1--1----------------------------------------------|
A|--3--3--3--3-----------------------------------------------2----------|
E|-----------------------------2--2--2--1--1--1--1--4--4--4-------------|

(Riff 5.4)

G|----------------------------------------------------------------------|
D|--------------1--1--1--1----------------------------------------------|
A|--3--3--3--3--------------------------------------------------2--2----|
E|-----------------------------2--2--2--------4--4--4--4----------------|

(Riff 5.3)

G|----------------------------------------------------------------------|
D|--------------1--1--1--1----------------------------------------------|
A|--3--3--3--3-----------------------------------------------2----------|
E|-----------------------------2--2--2--1--1--1--1--4--4--4-------------|

(Riff 5.2)

G|----------------------------------------------------------------------|
D|--------------1--1--1--1----------------------------------------------|
A|--3--3--3--3--------------------------------------------------1--1----|
E|-----------------------------2--2--2--------2--2--2--2----------------|

(Riff 5.3)

G|----------------------------------------------------------------------|
D|--------------1--1--1--1----------------------------------------------|
A|--3--3--3--3-----------------------------------------------2----------|
E|-----------------------------2--2--2--1--1--1--1--4--4--4-------------|

(Riff 5.4)

G|----------------------------------------------------------------------|
D|--------------1--1--1--1----------------------------------------------|
A|--3--3--3--3--------------------------------------------------2--2----|
E|-----------------------------2--2--2--------4--4--4--4----------------|

(Riff 6.1) play 2 times

3/4

G|----------------------------------------|----------------------------------------|
D|----------------------------------------|----------------------------------------|
A|--2--2--2--2--2--2--2--3----------------|--2--2--2--2--2--2--2--3----------------|
E|----------------------------------------|----------------------------------------|

G|----------------------------------------|----------------------------------------|
D|----------------------------------------|----------------------------------------|
A|--0--0--0--0--0--1----------------------|--0--0--0--0--0--1----------------------|
E|----------------------------------------|----------------------------------------|

[VI - Calculus]

(Riff 6.1) play 2 times

G|----------------------------------------|----------------------------------------|
D|----------------------------------------|----------------------------------------|
A|--2--2--2--2--2--2--2--3----------------|--2--2--2--2--2--2--2--3----------------|
E|----------------------------------------|----------------------------------------|

G|----------------------------------------|----------------------------------------|
D|----------------------------------------|----------------------------------------|
A|--0--0--0--0--0--1----------------------|--0--0--0--0--0--1----------------------|
E|----------------------------------------|----------------------------------------|

(Riff 6.2)

G|----------------------------------------|----------------------------------------|
D|--4-------------------------------------|----------------------------------------|
A|--2-------------------------------------|----------------------------------------|
E|----------------------------------------|----------------------------------------|

G|----------------------------------------|----------------------------------------|
D|----------------------------------------|----------------------------------------|
A|--0--0--0--0--0--1----------------------|--0--0--0--0--0--1----------------------|
E|----------------------------------------|----------------------------------------|

(Riff 6.3)

G|----------------------------------------|----------------------------------------|
D|--4-------------------------------------|----------------------------------------|
A|--2-------------------------------------|----------------------------------------|
E|----------------------------------------|----------------------------------------|

G|----------------------------------------|-----------------2--3-------------------|
D|----------------------------------------|-----------------------1--4-------------|
A|--0--0--0--0--0--1----------------------|--0--0--0--0--0--------------0--1--0----|
E|----------------------------------------|----------------------------------------|

[VII - Imagine...]

(Riff 7.1)

9/8

G|----------------------------------------------------------|
D|----------------------------------------------------------|
A|-----------------------------------------------5--5--5----|
E|--0--0--0--0--0--0--0--0--0--0--0--0--3--3--3-------------|

G|----------------------------------------------------------|
D|----------------------------------------------------------|
A|--4-----4--4--4--4--4--4--4--4--4--4--3--3--3--2--2--2----|
E|----------------------------------------------------------|

(Riff 7.2)

9/8

G|----------------------------------------------------------|
D|----------------------------------------------------------|
A|-----------------------------------------------5--5--5----|
E|--0-----0--0--0--0--0--0--0--0--0--0--3--3--3-------------|

G|----------------------------------------------------------|
D|----------------------------------------------------------|
A|--4-----4--4--4--4--4--4--4--4--4--4--3--3--3--2--2--2----|
E|----------------------------------------------------------|

(Riff 7 Interlude 1)

3/8

G|----------------------|
D|--2--0-----------0----|
A|--------3--2--3-------|
E|----------------------|

(Riff 7.2) play two times

9/8

G|----------------------------------------------------------|
D|----------------------------------------------------------|
A|-----------------------------------------------5--5--5----|
E|--0-----0--0--0--0--0--0--0--0--0--0--3--3--3-------------|

G|----------------------------------------------------------|
D|----------------------------------------------------------|
A|--4-----4--4--4--4--4--4--4--4--4--4--3--3--3--2--2--2----|
E|----------------------------------------------------------|

(Riff 7 Interlude 1)

3/8

G|----------------------|
D|--2--0-----------0----|
A|--------3--2--3-------|
E|----------------------|

(Riff 7.3)

9/8

G|----------------------------------------------------------|
D|--2--3--0--2-----0--2--5--2--3--2--0--2--0-----------0----|
A|--------------3-----------------------------3--2--3-------|
E|----------------------------------------------------------| x2

(Riff 7 Interlude 1)

3/8

G|----------------------|
D|--2--0-----------0----|
A|--------3--2--3-------|
E|----------------------|

(Riff 7.4) The last three notes are 16th triplets.

10/8

G|-----------------------------------------------------------------|
D|--2--3--0--2-----0--2--5--2--3--2--0--2--0--------------------0--|
A|--------------3-----------------------------3--2----------3-3----|
E|-----------------------------------------------------------------|

9/8

G|----------------------------------------------------------|
D|--2--3--0--2-----0--2--5--2--3--2--0--2--0-----------0----|
A|--------------3-----------------------------3--2--3-------|
E|----------------------------------------------------------|

(Riff 7 Interlude 2) All notes are 16th triplets.

3/8

G|----------------------------|
D|------------------9-10-12---|
A|--8-10-10-8-10-12-----------|
E|----------------------------|

(Riff 7.5)

9/8

G|-----------------------12---------------------------------|
D|--14-15-12-14----12-14----14-15-14-12-14-12----------12---|
A|--------------15----------------------------15-14-15------|
E|----------------------------------------------------------| x2

(Riff 7 Interlude 3)

3/8

G|----------------------|
D|--14-12----------12---|
A|--------15-14-15------|
E|----------------------|

(Riff 7.6) This riff is like Riff 7.5, but it's only played once, not twice, and has an 8th pause at the end.

10/8

G|-----------------------12---------------------------------|
D|--14-15-12-14----12-14----14-15-14-12-14-12----------12---|
A|--------------15----------------------------15-14-15------|
E|----------------------------------------------------------|

(Short Lick 2)

18/16

G|--12-10-9------9----------------------------------------------------------|
D|-----------12-----12-10-9------9------------------------------------------|
A|---------------------------12-----12--10------------10--------------------|
E|------------------------------------------12-12-10------10--7--5--7--5----|

(Riff 8.1)

15/16                                               16/16

G|-------------------------------------------------|----------------------------------------------------|
D|-------------------------------------------------|----------------------------------------------------|
A|-----------5--5--5-------------------------------|-----------5--5--5----------------------------------|
E|--4--4--4-----------4--4--4--4--4--4--5--7--5----|--4--4--4-----------4--4--4--4--4--4--5--7--5--4----|

(Riff 8.2)

15/16                                               16/16

G|-------------------------------------------------|----------------------------------------------------|
D|-------------------------------------------------|----------------------------------------------------|
A|-----------5--5--5-------------------------------|-----------5--5--5----------------------------------|
E|--4--4--4-----------4--4--4--4--4--4--5--5--5----|--4--4--4-----------4--4--4--4--4--4--5--7--5--4----|

[VIII - Algebra Part 1]

(Riff 8.2)

15/16                                               16/16

G|-------------------------------------------------|----------------------------------------------------|
D|-------------------------------------------------|----------------------------------------------------|
A|-----------5--5--5-------------------------------|-----------5--5--5----------------------------------|
E|--4--4--4-----------4--4--4--4--4--4--5--5--5----|--4--4--4-----------4--4--4--4--4--4--5--7--5--4----|

(Riff 8.3)

15/16                                               18/16

G|-------------------------------------------------|-------------------------------------------------------|
D|-------------------------------------------------|-------------------------------------------------------|
A|-----------5--5--5-------------------------------|-----------5--5--5-------------------------------------|
E|--4--4--4-----------4--4--4--4--4--4--5--5--5----|--4--4--4-----------4--4--4--4--4--4--5--7--5--4--5----|

(Riff 8.4)

15/16                                               16/16

G|-------------------------------------------------|----------------------------------------------------|
D|-------------------------------------------------|----------------------------------------------------|
A|--------------------------0--------------0-------|--------------------------0--------------0-----0----|
E|--1--1--1--1-----1-----1--------1--1--1----------|--1--1--1--1-----1-----1--------1--1--1-------------|

(Riff 8.5)

15/16                                               13/16

G|-------------------------------------------------|------------------------------------------|
D|-------------------------------------------------|------------------------------------------|
A|--------------------------0--------------0-------|--------------------------0---------------|
E|--1--1--1--1-----1-----1--------1--1--1----------|--1--1--1--1-----1-----1--------1--1--1---|

(Riff 8.1)

15/16                                               16/16

G|-------------------------------------------------|----------------------------------------------------|
D|-------------------------------------------------|----------------------------------------------------|
A|-----------5--5--5-------------------------------|-----------5--5--5----------------------------------|
E|--4--4--4-----------4--4--4--4--4--4--5--7--5----|--4--4--4-----------4--4--4--4--4--4--5--7--5--4----|

(Riff 8.2)

15/16                                               16/16

G|-------------------------------------------------|----------------------------------------------------|
D|-------------------------------------------------|----------------------------------------------------|
A|-----------5--5--5-------------------------------|-----------5--5--5----------------------------------|
E|--4--4--4-----------4--4--4--4--4--4--5--5--5----|--4--4--4-----------4--4--4--4--4--4--5--7--5--4----|

[VIII - Algebra Part 2]

(Riff 8.2)

15/16                                               16/16

G|-------------------------------------------------|----------------------------------------------------|
D|-------------------------------------------------|----------------------------------------------------|
A|-----------5--5--5-------------------------------|-----------5--5--5----------------------------------|
E|--4--4--4-----------4--4--4--4--4--4--5--5--5----|--4--4--4-----------4--4--4--4--4--4--5--7--5--4----|

(Riff 8.3)

15/16                                               18/16

G|-------------------------------------------------|-------------------------------------------------------|
D|-------------------------------------------------|-------------------------------------------------------|
A|-----------5--5--5-------------------------------|-----------5--5--5-------------------------------------|
E|--4--4--4-----------4--4--4--4--4--4--5--5--5----|--4--4--4-----------4--4--4--4--4--4--5--7--5--4--5----|

(Riff 8.6)

15/16                                               16/16

G|-------------------------------------------------|---------------------------------------------|
D|-------------------------------------------------|---------------------------------------------|
A|--------------------------0--------------0-------|--------------------------0------------------|
E|--1--1--1--1-----1-----1--------1--1--1----------|--1--1--1--1-----1-----1--------1--1--1------|

(Riff 8.8) Like Riff 8.7, but with the last note tacked on instead of it being part of the next measure like
before.

21/16

G|-------------------------------------------------------------------|
D|-------------------------------------------------------------------|
A|-------------------------------------------------------------------|
E|--1--1--1--1-----1-----1--1-----------1--1--1-----1--1-------------|

18/16

G|----------------------------------------------------------|
D|----------------------------------------------------------|
A|----------------------------------------------------------|
E|--1--1--1--1-----1-----1--1-----------1--1--1-----1--1----|

[Outro]

(Riff 1.2) This riff is identical to Riff 1.1, but it is played in 110bpm, not 145bpm. However, the notes are
16ths, thus it is much faster.

15/16

G|-------------------------------------------------|
D|-----------3-----------------5-------------------|
A|--------1-----1-----------3-----3-----------5----|
E|--0--2-----------2--0--4-----------4--0--6-------|

(Riff 2.4) Identical to Riff 2.1 except for Tempo. Note that we're back at 8ths so it's overall slower.

Tempo: 165bpm descending to 145bpm

8/5

G|-------------------|-------------------|-------------------|-------------------|
D|--7----------------|--6----------------|--5----------------|--4----------------|
A|-----5-------------|-----4-------------|-----3-------------|-----2-------------|
E|--------6--5--0----|--------5--4--0----|--------4--3--0----|--------3--2--0----|

(Riff 3.6) play two times

4/4                            5/4

G|--------------2-------------|--------------3-----3-------------|-4-----------------|
D|----------------------------|----------------------------------|-2-----------------|
A|----------------------------|----------------------------------|-------------------|
E|--2--2--2--2-----------2-2--|--2--1-----1-----------0-----0----|-------------------|


(Riff 3.7) The first three notes are quarter triplets.

4/4                            5/4

G|--------------2-------------|--------------3-------------------|-4-----------------|
D|----------------------------|----------------------------------|-2-----------------|
A|----------------------------|----------------------------------|-------------------|
E|---2---2---2----------------|--2--1--1--1-----------0--0--0----|-------------------|

(Riff 3.8) The first five notes are 8th quintuplets.

4/4                                  5/4

G|-----------------2----------------|--------------3--3--3-------------|-4-----------------|
D|----------------------------------|----------------------------------|-2-----------------|
A|----------------------------------|----------------------------------|-------------------|
E|--2--2--2--2--2-------------------|--2--1-----1-----------0-----0----|-------------------|

(Riff 3.9) The first seven notes are 8th septuplets.

4/4                                  5/4

G|-----------------2----------------|--------------3--3--3-------------|-4-----------------|
D|----------------------------------|----------------------------------|-2-----------------|
A|----------------------------------|----------------------------------|-------------------|
E|--2-2-2-2-2-2-2-------------------|--2--1-----1-----------0-----0----|-------------------|

(Riff 3.10) The first five notes are 8th quintuplets.

4/4                                  5/4                                9/8

G|-----------------2----------------|--------------3--3--3-------------|--4-----------------4----------|
D|----------------------------------|----------------------------------|--2-----------------2----------|
A|----------------------------------|----------------------------------|-------------------------------|
E|--2--2--2--2--2-------------------|--2--1-----1-----------0-----0----|-----------0-----0-------------|

(Riff 3.11) The first three notes are quarter triplets.

4/4

G|--------------2-------------|----------|
D|----------------------------|----------|
A|----------------------------|----------|
E|---2---2---2----------------|--2--1----|

Fin

************************************

| >   accentuated note

************************************
Suggest correction
Give kudos to tab author, rate the tab!
1 2 3 4 5
comments
print report bad tab
guest
You may want to rate the tab now too:
select rating
Wanna post a correction for this tab? Suggest correction