Oops, an error
Loading. Please wait.

21 Questions Chords

version 1
version 1

Whole song

  • There are no other existing tabs for this song yet.
  • Chords are simple and the use of the capo matches ... Show more

Video

895 views 267 this week
1 commentread comment
1 2 3 4 5
x 3
add to favorites
launch autoscroll
font size
0
reset
transpose
0
reset
simplify chords
display chords
guitar tuner
Autoscroll
slow
fast
+/-
esc
set tempo
stop
Help us to improve Ultimate-Guitar.com Take our survey!
×
Author
Difficulty
About this tab version
There are no other existing tabs for this song yet. Was this info helpful? Yes No
21 Questions - Waterparks
Tabbed by Justin Starr


Tune a Half Step Down

[Intro]
    E    Asus2           Amaj7
eb|-0-0--0---0-----------0-0--0-0--0------------------------------|
Bb|-0-0--0---0-----------0-0--0-0--0------------------------------|
Gb|-1-1--2---2-----------1-1--1-1--1------------------------------|
Db|-2-2--2---2--1h2p1----2-2--2-2--2------------------------------|
Ab|-2-2--0---0--------2--0-0--0-0--0------------------------------|
Eb|-0-0-(0)-(0)---------------------------------------------------|

   C#m7  Asus2           B    Bsus4
eb|------0---0----------------------------------------------------|
Bb|-5-5--0---0-----------4-4--5-----------------------------------|
Gb|-4-4--2---2-----------4-4--4-----------------------------------|
Db|-x-x--2---2--1h2p1----4-4--4-----------------------------------|
Ab|-4-4--0---0--------2--2-2--2-----------------------------------|
Eb|-0-0-(0)-(0)---------------------------------------------------|

[Verse 1]
                   E               Asus2
I wish there was a situation to be mad at
     E
Or a person I could blame
           C#m7           Asus2
I've got a loud mouth and pale with a ghost obession
    B
But behind the scenes with her I'm playing 21 questions
E                  Asus2      E
There's gotta be a reason you keep your guy in hiding
    C#m7               Asus2                          B
I'm becoming what I've hated but your talk is so inviting

[Pre-Chorus]
    A
But then what?
      E
You'd drop your guy and take me on it's everything I wanted
     A
But then what?
              E
Would you get tired of my time?

[Chorus]
   A                       E
My mood's dictated by our conversations
           B
And if you don't text I get too frustrated
A              E              B
I want you all to myself this time
B
Ti-ti-time
A          E              B
Conflicted looks good on me
B          C#m7     A
I'm trying desperately
             E              B
Want you all to myself this time
B
Ti-ti-time

[Interlude]
eb|-0-0--0---0-----------0-0--0-0--0------------------------------|
Bb|-0-0--0---0-----------0-0--0-0--0------------------------------|
Gb|-1-1--2---2-----------1-1--1-1--1------------------------------|
Db|-2-2--2---2--1h2p1----2-2--2-2--2------------------------------|
Ab|-2-2--0---0--------2--0-0--0-0--0------------------------------|
Eb|-0-0-(0)-(0)---------------------------------------------------|

eb|------0---0----------------------------------------------------|
Bb|-5-5--0---0-----------4-4--5-----------------------------------|
Gb|-4-4--2---2-----------4-4--4-----------------------------------|
Db|-x-x--2---2--1h2p1----4-4--4-----------------------------------|
Ab|-4-4--0---0--------2--2-2--2-----------------------------------|
Eb|-0-0-(0)-(0)---------------------------------------------------|

[Verse 2]
               E                Asus2               E
I never have to carefully shape sentences when I've got some words to say
        E                            Asus2                 E
They're falling from my mouth in the time that they hit my brain
E                                 Asus2
Cause we built a picture made for frames
                     E                                 B
We live in chemistry away from all the wasted time and taste

[Pre-Chorus]
    A
But then what?
     E
You dropped your guy and took me on it's everything I wanted
     A
But then what?
             E
Will you get tired of my time?

[Chorus]
   A                       E
My mood's dictated by our conversations
           B
And if you don't text I get too frustrated
A              E              B
I want you all to myself this time
B
Ti-ti-time
A          E              B
Conflicted looks good on me
B          C#m7     A
I'm trying desperately
             E              B
Want you all to myself this time
B
Ti-ti-time

[Bridge]
C#m                         A
We built a picture made for frames
                     E                                 B
We live in chemistry away from all the wasted time and taste
C#m         
And it sucks to sleep
                            A
Cause you aren't talking to me
A
I wanna give you space
                  E                   B
But the amount between us is wrecking me

[Pre-Chorus]
     A
But then what?
     E
You dropped your guy and took me on it's everything I wanted
     A
But then what?
               E
Would you get tired of my time?
       A
Cause then what?
     E
You dropped your guy and took me on it's everything I wanted
     A
But then what?
             E
Will you get tired of my time?
      A
Cause then what?
    E
You dropped your guy and took me on it's everything I wanted
    A
But then what?
        E
Am I in his position now?
       A
Cause then what?
     B
You dropped your guy and took me on it's everything I wanted
    A
But then what?
          B
Would get tired of my time?

[Chorus]
   A                       E
My mood's dictated by our conversations
           B
And if you don't text I get too frustrated
A              E              B
I want you all to myself this time
B
Ti-ti-time
A          E              B
Conflicted looks good on me
B          C#m7     A
I'm trying desperately
             E              B
Want you all to myself this time
B
Ti-ti-time

[Outro]
A           E           B
Oh oh oh oh oh oh oh oh oh
B
I'll forget you if you need me to
A           E           B
Oh oh oh oh oh oh oh oh oh
B
Like nothing ever happened
A           E           B
Oh oh oh oh oh oh oh oh oh
B
My sun still sets without you
A          E            B
Oh oh oh oh oh oh oh oh oh
B
Like nothing ever happened

eb|-0-0--0---0-----------0-0--0-0--0------------------------------|
Bb|-0-0--0---0-----------0-0--0-0--0------------------------------|
Gb|-1-1--2---2-----------1-1--1-1--1------------------------------|
Db|-2-2--2---2--1h2p1----2-2--2-2--2------------------------------|
Ab|-2-2--0---0--------2--0-0--0-0--0------------------------------|
Eb|-0-0-(0)-(0)---------------------------------------------------|

eb|------0---0----------------0-----------------------------------|
Bb|-5-5--0---0-----------4-5--0-----------------------------------|
Gb|-4-4--2---2-----------4-4--2-----------------------------------|
Db|-x-x--2---2--1h2p1----4-x--2-----------------------------------|
Ab|-4-4--0---0--------2--2-4--0-----------------------------------|
Eb|-0-0-(0)-(0)---------------------------------------------------|


************************************

| b    Bend
| h    Hammer-on
| p    Pull-off
| (n)  Ghost note
| x    Dead note

************************************
Suggest correction
Give kudos to tab author, rate the tab!
1 2 3 4 5
comments
print report bad tab
1 comment total.
0 reply
ptvsab 20 Nov 16, 2016 12:07 AM

this sounds really good, and finally some more waterparks chords

guest
You may want to rate the tab now too:
select rating
Wanna post a correction for this tab? Suggest correction