Oops, an error
Loading. Please wait.

Candy tab

73 views 6 this week
no commentswrite comment
1 2 3 4 5
2 more votes to show rating
add to favorites
×
Save as Personal and add changes to this tab that will be seen only by you. Learn more ›
×
You can save this tab as Personal to edit and correct it or add notes. All changes will be seen only by you. Learn more »
launch autoscroll
font size
0
reset
how to read this tab
guitar tuner
edit
Autoscroll
slow
fast
+/-
esc
set tempo
stop
-----------------------------------------------------------------------------
                           CANDY - Waterparks
-----------------------------------------------------------------------------
Tuning: Drop D (DADGBe)

Here's the link to my guitar cover!: https://www.youtube.com/watch?v=Ix1EIyXCb_k

Guitar 1 - Awsten Knight
Guitar 2 - Geoff Wigington

Intro:

Guitar 1
e|-------------------------------------------------------------------|
B|-------------------------------------------------------------------|
G|-4~-------------------------------4~-------------------------------|
D|-4~----4-4-2-2~---2-2~-----2-2-xx-4~----4-4-2-2~---2-2-2-2~--------|
A|-2~----4-4-2-2~---2-2~-----2-2-xx-2~----4-4-2-2~---2-2-2-2~--------|
D|-------4-4-2-2~---2-2~-----2-2-xx-------4-4-2-2~---2-2-2-2~--------|

Full Band Intro:

Guitar 1, 4x
e|-------------------------------------------------|------------1.-|----2.-||
B|-------------------------------------------------|---------------|-------||
G|-4~-------------------------------4~-------------|---------------|-------||
D|-4~----4-4-2-2~---2-2~-----2-2-xx-4~----4-4-2-2~-|--2-2~---2-2-2-|-2-----||
A|-2~----4-4-2-2~---2-2~-----2-2-xx-2~----4-4-2-2~-|--2-2~---2-2-2-|-2--x8-||
D|-------4-4-2-2~---2-2~-----2-2-xx-------4-4-2-2~-|--2-2~---2-2-2-|-2-----||

Guitar 2. 4x
e|-------------------------------------------------|------------1.-|----2.-||
B|-------------------------------------------------|---------------|-------||
G|-4~----6-6-4-4~---4-4~-----4-4----4~----6-6-4-4~-|--4-4~---4-4-4-|-4-----||
D|-4~-------------------------------4~-------------|---------------|----x8-||
A|-2~----4-4-2-2~---2-2~-----2-2----2~----4-4-2-2~-|--2-2~---2-2-2-|-2-----||
D|-------------------------------------------------|---------------|-------||

Verse 1:

Guitar 1
e|----------------------------------------------|
B|----------------------------------------------|
G|--------------------4~------6~----------------|
D|-6~-----------------4~------6~-----6~----.----|
A|-6~-----------------2~------4~-----6~---------|
D|-6~--------------------------------6~---------|

e|----------------------------------------------|
B|----------------------------------------------|
G|--------------------------.-------------------|
D|--------4-----6-----------6-------------------|
A|-6--x32-2--x8-4--x8-6--x7-6-------------------|
D|-6------------------6-----6-------------------|
   *      *     *     *
Chorus:

Guitar 1
e|-----------------3x-|-------------------------------------------------------------------|
B|--------------------|-------------------------------------------------------------------|
G|--------------------|-4~-------------------------------4~-------------------------------|
D|-2-----6-----4------|-4~----4-4-2-2~---2-2~-----2-2-xx-4~----4-4-2-2~---2-2----2-2-2----|
A|-2--x8-6--x8-4--x16-|-2~----4-4-2-2~---2-2~-----2-2-xx-2~----4-4-2-2~---2-2----2-2-2----|
D|-2-----6-----4------|-------4-4-2-2~---2-2~-----2-2-xx-------4-4-2-2~---2-2----2-2-2----|

e|---------------------------------------------------------|
B|---------------------------------------------------------|
G|-4~-------------------------------4----------------------|
D|-4~----4-4-2-2~---2-2~-----2-2-xx-4--x8-4----------------|
A|-2~----4-4-2-2~---2-2~-----2-2-xx-2-----4--x8------------|
D|-------4-4-2-2~---2-2~-----2-2-xx-------4----------------|

Guitar 2
e|-7--x8-11--x8-9--x16------6-x-|-----------------------7---7---7-----------------7---7---7-|
B|----------------------7-9-----|-------------------------0---0---------------------0---0---|
G|------------------------------|-4~----6-6-4-4~---4-4~-----------6-6-4-4~---4-4~-----------|
D|------------------------------|-4~--------------------------------------------------------|
A|------------------------------|-2~----4-4-2-2~---2-2~-----------4-4-2-2~---2-2~-----------|
D|---------------------------2x-|-----------------------------------------------------------|
                                                          *   *                     *   *
e|-----------------------7---7---7-11--x7-9-x8--|
B|-------------------------0---0----------------|
G|-4~----6-6-4-4~---4-4~------------------------|
D|-4~-------------------------------------------|
A|-2~----4-4-2-2~---2-2~------------------------|
D|----------------------------------------------|
                           *   *
Verse 1:

Guitar 1
e|----------------------------------------------|
B|----------------------------------------------|
G|--------------------4~------6~----------------|
D|-6~-----------------4~------6~-----6~----.----|
A|-6~-----------------2~------4~-----6~---------|
D|-6~--------------------------------6~---------|

e|----------------------------------------------|
B|----------------------------------------------|
G|--------------------------.-------------------|
D|--------4-----6-----------6-------------------|
A|-6--x32-2--x8-4--x8-6--x7-6-------------------|
D|-6------------------6-----6-------------------|
   *      *     *     *

e|------7~------------7------------------11~-------------------------|
B|------------9~--------9-----7~---7---------------------------------|
G|-8~---------------------8----------8------------9-8----------------|
D|-------------------------------------9--------9--------------------|
A|-------------------------------------------------------------------|
D|-------------------------------------------------------------------|

Chorus 2:

Guitar 1
e|-----------------3x-|-------------------------------------------------------------------|
B|--------------------|-------------------------------------------------------------------|
G|--------------------|-4~-------------------------------4~-------------------------------|
D|-2-----6-----4------|-4~----4-4-2-2~---2-2~-----2-2-xx-4~----4-4-2-2~---2-2----2-2-2----|
A|-2--x8-6--x8-4--x16-|-2~----4-4-2-2~---2-2~-----2-2-xx-2~----4-4-2-2~---2-2----2-2-2----|
D|-2-----6-----4------|-------4-4-2-2~---2-2~-----2-2-xx-------4-4-2-2~---2-2----2-2-2----|

e|---------------------------------------------------------|
B|---------------------------------------------------------|
G|-4~-------------------------------4----------------------|
D|-4~----4-4-2-2~---2-2~-----2-2-xx-4--x8-4----------------|
A|-2~----4-4-2-2~---2-2~-----2-2-xx-2-----4--x8------------|
D|-------4-4-2-2~---2-2~-----2-2-xx-------4----------------|

Guitar 2
e|-7--x8-11--x8-9--x16------6-x-|-----------------------7---7---7------------------7---7---7-|
B|----------------------7-9-----|-------------------------0---0----------------------0---0---|
G|------------------------------|-4~----6-6-4-4~---4-4~-----------6-6-4-4~---4-4~------------|
D|------------------------------|-4~---------------------------------------------------------|
A|------------------------------|-2~----4-4-2-2~---2-2~-----------4-4-2-2~---2-2~------------|
D|---------------------------2x-|------------------------------------------------------------|
                                                          *   *                      *   *
e|-----------------7---7---7-11--x7-9-x8--|
B|-------------------0---0----------------|
G|-6-6-4-4~---4-4~------------------------|
D|----------------------------------------|
A|-4-4-2-2~---2-2~------------------------|
D|----------------------------------------|
                           *   *
e|-----------------------7---7---7------------------7---7---7-----------------7---7---7-11--x7-9-x8-|
B|-------------------------0---0----------------------0---0---------------------0---0---------------|
G|-4~----6-6-4-4~---4-4~-----------6-6-4-4~---4-4~------------6-6-4-4~---4-4~-----------------------|
D|-4~-----------------------------------------------------------------------------------------------|
A|-2~----4-4-2-2~---2-2~-----------4-4-2-2~---2-2~------------4-4-2-2~---2-2~-----------------------|
D|--------------------------------------------------------------------------------------------------|
                           *   *                      *   *                     *   * 
Bridge:

Guitar 1
e|-----------------------------------------------------------------------------------------------|
B|-----------------------------------------------------------------------------------------------|
G|-9------8-8-8-8-4------9------8-8-8-8-4------9------8-8-8-8-4------9-----4---------------------|
D|-9--x16-9-9-9-9-4--x16-9--x16-9-9-9-9-4--x16-9--x16-9-9-9-9-4--x16-9--x8-4--x8-4------2~-------|
A|-7------6-6-6-6-2------7------6-6-6-6-2------7------6-6-6-6-2------7-----2-----4--x16-2~-------|
D|-------------------------------------------------------------------------------4------2~-------|

Guitar 2
e|-14~----------/19-19-19-------------------------16-16-16-14~------|
B|---------14~------------16-16-16--------14-14-14------------------|
G|--------------------------------15-15-15--------------------------|
D|------------------------------------------------------------------|
A|------------------------------------------------------------------|
D|------------------------------------------------------------------|

e|-------/19-19-19------------------------16b18r-14~----------------|
B|-14~------------16-16-16--------14-14-14--------------------------|
G|------------------------15-15-15----------------------------------| 2x
D|------------------------------------------------------------------|
A|------------------------------------------------------------------|
D|------------------------------------------------------------------|

e|-----------------------------------------------------------------------------------|
B|-14~----12~----14~----12~----------------------------------------------------------|
G|--------------------------------------------------------------------------------6)-|
D|----------------------(2-2-2-2-2-2-2-2-6-6-6-6-6-6-6-6-4--x16-2--x8-6--x8-4--x8-4)-|
A|-----------------------------------------------------------------------------------|
D|-----------------------------------------------------------------------------------|
                         * * * * * * * * * * * * * * * * *      *     *     *     
Final Chorus:

Guitar 1
e|-----------------3x-|-------------------------------------------------------------------|
B|--------------------|-------------------------------------------------------------------|
G|--------------------|-4~-------------------------------4~-------------------------------|
D|-2-----6-----4------|-4~----4-4-2-2~---2-2~-----2-2-xx-4~----4-4-2-2~---2-2----2-2-2----|
A|-2--x8-6--x8-4--x16-|-2~----4-4-2-2~---2-2~-----2-2-xx-2~----4-4-2-2~---2-2----2-2-2----|
D|-2-----6-----4------|-------4-4-2-2~---2-2~-----2-2-xx-------4-4-2-2~---2-2----2-2-2----|

e|---------------------------------------------------------|
B|---------------------------------------------------------|
G|-4~-------------------------------4----------------------|
D|-4~----4-4-2-2~---2-2~-----2-2-xx-4--x8-4----------------|
A|-2~----4-4-2-2~---2-2~-----2-2-xx-2-----4--x8------------|
D|-------4-4-2-2~---2-2~-----2-2-xx-------4----------------|

Guitar 2
e|-7--x8-11--x8-9--x8--------------------9-|-----------------------7---7---7------------------7---7---7-|
B|---------------------11-12-11-12-11-12---|-------------------------0---0----------------------0---0---|
G|-----------------------------------------|-4~----6-6-4-4~---4-4~-----------6-6-4-4~---4-4~------------|
D|-----------------------------------------|-4~---------------------------------------------------------|
A|-----------------------------------------|-2~----4-4-2-2~---2-2~-----------4-4-2-2~---2-2~------------|
D|--------------------------------------2x-|------------------------------------------------------------|
                                                                     *   *                      *   *
e|-----------------7---7---11--x8-9-x8--|
B|-------------------0---0--------------|
G|-6-6-4-4~---4-4~----------------------|
D|--------------------------------------|
A|-4-4-2-2~---2-2~----------------------|
D|--------------------------------------|
                           *   *
e|-----------------------7---7---7------------------7---7---7-----------------7---7---11--x8-9-x8-|
B|-------------------------0---0----------------------0---0---------------------0---0-------------|
G|-4~----6-6-4-4~---4-4~-----------6-6-4-4~---4-4~------------6-6-4-4~---4-4~---------------------|
D|-4~---------------------------------------------------------------------------------------------|
A|-2~----4-4-2-2~---2-2~-----------4-4-2-2~---2-2~------------4-4-2-2~---2-2~---------------------|
D|------------------------------------------------------------------------------------------------|
                           *   *                      *   *
Outro:

Guitar 1
e|-------------------------------------------------------------------|
B|-------------------------------------------------------------------|
G|-4~-------------------------------4~-------------------------------|
D|-4~----4-4-2-2~---2-2~-----2-2-xx-4~----4-4-2-2~---2-2~-xxxx-------|
A|-2~----4-4-2-2~---2-2~-----2-2-xx-2~----4-4-2-2~---2-2~-xxxx-------|
D|-------4-4-2-2~---2-2~-----2-2-xx-------4-4-2-2~---2-2~-xxxx-------|

e|----------------------------------------------------------|
B|----------------------------------------------------------|
G|-4~-------------------------------4-----------------------|
D|-4~----4-4-2-2~---2-2~-----2-2-xx-4--x8-4-----------------|
A|-2~----4-4-2-2~---2-2~-----2-2-xx-2-----4--x8-------------|
D|-------4-4-2-2~---2-2~-----2-2-xx-------4-----------------|

Guitar 2
e|--------------------------------------------------------------|
B|--------------------------------------------------------------|
G|-4~----6-6-4-4~---4-4~-----4-4----4~----6-6-4-4~---4-4~-------|
D|-4~-------------------------------4~--------------------xxxx--|
A|-2~----4-4-2-2~---2-2~-----2-2----2~----4-4-2-2~---2-2~-xxxx--|
D|--------------------------------------------------------xxxx--|

e|----------------------------------11--x8-9--x8-|
B|-----------------------------------------------|
G|-4~----6-6-4-4~---4-4~-----4-4-----------------|
D|-4~--------------------------------------------|
A|-2~----4-4-2-2~---2-2~-----2-2-----------------|
D|-----------------------------------------------|

            
            
Suggest correction
Creating personal tab
Creating personal tab
You can edit any tab online and save it as your Personal.

You can edit, replace or remove any tab part or add personal notes – all changes will be seen only by you.

Personal tabs can be accessed anytime from any device, even offline.
Learn more »
Give kudos to tab author, rate the tab!
1 2 3 4 5
comments
print report bad tab
guest
You may want to rate the tab now too:
select rating
Wanna post a correction for this tab? Suggest correction