Oops, an error
Loading. Please wait.

Christmas tab

109 views 1 this week
no commentswrite comment
1 2 3 4 5
3 more votes to show rating
add to favorites
×
Save as Personal and add changes to this tab that will be seen only by you. Learn more ›
×
You can save this tab as Personal to edit and correct it or add notes. All changes will be seen only by you. Learn more »
launch autoscroll
font size
0
reset
how to read this tab
guitar tuner
edit
Autoscroll
slow
fast
+/-
esc
set tempo
stop
Tuning: Drop D (DADGBe)
Guitar 1 - Awsten Knight
Guitar 2 - Geoff Wigington
Link to my guitar cover here!: https://www.youtube.com/watch?v=npT8970cd18
[Intro] (guitar 1 only, clean)
e|------------------------------------------------|---------------|----||
B|---4---4~--4--------8---8~--8-------6---4~-6----|---6---4~-6----|-6~-||
G|-3---3-------3~--/8---8-------8~--4---4------4~-|-4---4------4~-|-4~-||
D|------------------------------------------------|---------------|----||
A|------------------------------------------------|---------------|----||
D|------------------------------------------------|-----------1.--|-2.-||

[Intro Pt. 2], 2x
Guitar 1
e|--------------------------------------------------------|
B|--------------------------------------------------------|
G|--------------------------------------------------------|
D|-1-1-1-1-8-8-8-8-6-6-6-6-6-6-6-6------------------------|
A|-1-1-1-1-8-8-8-8-6-6-6-6-6-6-6-6------------------------|
D|-1-1-1-1-8-8-8-8-6-6-6-6-6-6-6-6------------------------|

Guitar 2
e|--------------------------------------------------------|
B|--------------------------------------------------------|
G|-8~-8~-8~-8~-7~-7~-7~-7~-5~-5~-5~-5~-4~-4~-4~-4~--------|
D|--------------------------------------------------------|
A|-6~-6~-6~-6~-5~-5~-5~-5~-3~-3~-3~-3~-2~-2~-2~-2~--------|
D|--------------------------------------------------------|

[Verse]
Guitar 1
e|--------------3~------------------------3~-------------------------|
B|---------3~---4~-------------------3~---4~-------------------------|
G|---------3~---3~-------------------3~---3~-------------------------|
D|-1~------5~---5~-----------1~------5~---5~-------------------------|
A|-1~------------------------1~--------------------------------------|
D|-1~------------------------1~--------------------------------------|

Guitar 2
e|-------------------------------------------------------------------|
B|-------------------------------------------------------------------|
G|-------------------7/8~----15~------------------------7/8~---------|
D|-------------------------------------------------------------------|
A|-------------------5/6~----13~------------------------5/6~---------|
D|-------------------------------------------------------------------|

Guitar 1
e|------------------------------------------------------------------------------------------------------|
B|------------------------------------------------------------------------------------------------------|
G|-5--------------.---5--------------.---5--------------.-----------------------------------------------|
D|-5--x8-5----5-5-5---5--x8-5----5-5-5---5--x8-5----5-5-5--------------------1~--------\\\--------------|
A|-3-----6-x5-5-5-6---3-----6-x5-5-5-6---3-----6-x5-5-5-6--------------------1~--------\\\-(pickscrape)-|
D|-------5----5-5-5---------5----5-5-5---------5----5-5-5--------------------1~--------\\\--------------|

Guitar 2
e|-----------------------------------------------------------------------------------------------------|
B|------------.----------------------------------------------------------------------------------------|
G|-8------7-7-8---12-----10-10-10-10-7-7-7-8---8-------10-10-10-10-15-15-15-15---15-----7--------------|
D|----x13-------------x8---------------------------x8--------------------------------x8----x8--(pause)-|
A|-6------5-5-6---10-----8--8--8--8--5-5-5-6---6-------8--8--8--8--13-13-13-13---13-----5--------------|
D|-----------------------------------------------------------------------------------------------------|

[Chorus]
Guitar 1
e|--------------------|----------------------------|
B|--------------------|----------------------------|
G|--------------------|-------8--------------------|
D|-------8--x8-8------|-6-----8--x8-8--------------|
A|-6--x8-6-----8--x16-|-6--x8-6-----8--x8-(pause)--|
D|-6-----------8------|-6-----------8--------------|

Guitar 2
e|-------------------------------------------------------|----1.-|---------------2.-||
B|-------------------------------------------------------|-------|------------------||
G|-------10--x8-----------------------------10--x8-7-----|-10----|-7---7---8---xxxx-||
D|-8--x8--------8--x8-3-3-3-3-5-5-5-5-8--x8-----------x8-|----x8-|---8---8---8-xxxx-||
A|-------------------------------------------------5-----|-8-----|------------------||
D|-------------------------------------------------------|-------|------------------||

[Intro Pt. 2], 2x

Guitar 1
e|--------------------------------------------------------|
B|--------------------------------------------------------|
G|--------------------------------------------------------|
D|-1-1-1-1-8-8-8-8-6-6-6-6-6-6-6-6------------------------|
A|-1-1-1-1-8-8-8-8-6-6-6-6-6-6-6-6------------------------|
D|-1-1-1-1-8-8-8-8-6-6-6-6-6-6-6-6------------------------|

Guitar 2
e|--------------------------------------------------------|
B|--------------------------------------------------------|
G|-8~-8~-8~-8~-7~-7~-7~-7~-5~-5~-5~-5~-4~-4~-4~-4~--------|
D|--------------------------------------------------------|
A|-6~-6~-6~-6~-5~-5~-5~-5~-3~-3~-3~-3~-2~-2~-2~-2~--------|
D|--------------------------------------------------------|

[Verse 2]
Guitar 1
e|-----------------------------------------|--------------------------|-----------------------1.-|------2.-||
B|-----------------------------------------|--------------------------|--------------------------|---------||
G|-5~~~~~~~-------------5------------------|-5--5--5--5--5--5---------|--------------------------|---------||
D|----------5-----6-----5--x16-5-----6-----|-5--5--5--5--5--5-5-5-5-5-|-6--6--6--6--6--6-5-5-5-5-|-6~---6~-||
A|-3~~~~~~~-5--x8-6--x8-3------5--x8-6--x8-|-3--3--3--3--3--3-5-5-5-5-|-6--6--6--6--6--6-5-5-5-5-|-6~---6~-||
D|----------5-----6------------5-----6-----|------------------5-5-5-5-|-6--6--6--6--6--6-5-5-5-5-|-6~---6~-||

Guitar 2
e|---------------------------------------------------------------------------------------------------------|
B|---.--.--.--.--.-- -------------------------------.--.--.--.--.--.-------------.--.--.-------------------|
G|---8--8--8--8--8--8-8-8-8-7-----3-3-5-5-3-3-3-3-3-5--5--5--5--5--5-12-12-12-12-7--7--7--7-8--8--8-8-8-8--|
D|-----------------------------x8--------------------------------------------------------------------------|
A|---6--6--6--6--6--6-6-6-6-5-----1-1-3-3-1-1-1-1-1-3--3--3--3--3--3-10-10-10-10-5--5--5--5-6--6--6-6-6-6--|
D|---------------------------------------------------------------------------------------------------------|

e|-------------------------------3x-|--------------------------|
B|----------------------------------|--------------------------|
G|-8---8---8---8---8---8---7-7-7-7/-|-8~----4~-----------------|
D|----------------------------------|--------------------------|
A|-6---6---6---6---6---6---5-5-5-5/-|-6~----2~-----------------|
D|----------------------------------|--------------------------|

[Chorus 2]
Guitar 1
e|--------------------|-----------------------------------|
B|--------------------|-----------------------------------|
G|--------------------|-------8---------------------------|
D|-------8--x8-8------|-6-----8--x8-8-----8-8---8-8---8---|
A|-6--x8-6-----8--x16-|-6--x8-6-----8--x8-8-8---8-8---8---|
D|-6-----------8------|-6-----------8-----8-8---8-8---8---|

Guitar 2
e|-------------------------------------------------|----1.-|------------2.-||
B|-------------------------------------------------|-------|---------------||
G|-------10--x8-----------------------10--x8-7-----|-10----|-7-7---7-7---7-||
D|-8--x8--------8--x8-3333-5555-8--x8-----------x8-|----x8-|---------------||
A|-------------------------------------------5-----|-8-----|-5-5---5-5---5-||
D|-------------------------------------------------|-------|---------------||

[Bridge]
Guitar 1
e|----------------------4x-|------------------------------------------|
B|-------------------------|------------------------------------------|
G|-------------------------|------------------------------------------|
D|-1-1-1-1-x-3-3-3-3-6-----|-1~---------------------------------------|
A|-1-1-1-1-x-3-3-3-3----x8-|-1~---------------------------------------|
D|-1-1-1-1-x-3-3-3-3-6-----|-1~---------------------------------------|

Guitar 2
e|----------------------2x-|
B|-------------------------|
G|-8-8-8-8-10----7-----12~-|
D|------------x4----x8-----|
A|-6-6-6-6-8-----5-----10~-|
D|-------------------------|

e|-------------------------------------------------------------------------------------11b13~r-11~-----|
B|----------------------------------------------------8~-------8h9p8~------------8~b9~--------------8~-|
G|-----------------------------------------------8h10-----8h10--------------8h10-----------------------|
D|-----5~-------5h6p5~-------5~------5~------8h10----------------------8h10----------------------------|
A|-6h8------6h8---------6h8------6h8-----6h8-----------------------------------------------------------|
D|-----------------------------------------------------------------------------------------------------|

[Re-Intro] (guitar 1 only)
e|------------------------------------------------|---------------|----||
B|---4---4~--4--------8---8~--8-------6---4~-6----|---6---4~-6----|-6~-||
G|-3---3-------3~--/8---8-------8~--4---4------4~-|-4---4------4~-|-4~-||
D|------------------------------------------------|---------------|----||
A|------------------------------------------------|---------------|----||
D|------------------------------------------------|-----------1.--|-2.-||

[Final Chorus]
Guitar 1
e|------------#-------|---------------------------------------------------|  # - pause here the second time
B|--------------------|---------------------------------------------------|
G|--------------------|-------8-------------------------------------------|
D|-------8--x8-8------|-6-----8--x8-8-----8-8---8-8---8-------------------|
A|-6--x8-6-----8--x16-|-6--x8-6-----8--x8-8-8---8-8---8-------------------|
D|-6-----------8------|-6-----------8-----8-8---8-8---8-------------------|

Guitar 2
e|-----------------------------------#-------------------|----1.---------|------------2.-||
B|-------------------------------------------------------|---------------|---------------|| # - pause here 
G|-------10--x8-----------------------------10--x8-7-----|-10----(pause)-|-7-7---7-7---7-||  the second time
D|-8--x8--------8--x8-3-3-3-3-5-5-5-5-8--x8-----------x8-|----x8---------|---------------||
A|-------------------------------------------------5-----|-8-------------|-5-5---5-5---5-||
D|-------------------------------------------------------|---------------|---------------||

[Intro Pt. 2], 2x
Guitar 1
e|--------------------------------------------------------|
B|--------------------------------------------------------|
G|--------------------------------------------------------|
D|-1-1-1-1-8-8-8-8-6-6-6-6-6-6-6-6------------------------|
A|-1-1-1-1-8-8-8-8-6-6-6-6-6-6-6-6------------------------|
D|-1-1-1-1-8-8-8-8-6-6-6-6-6-6-6-6------------------------|

Guitar 2
e|--------------------------------------------------------|
B|--------------------------------------------------------|
G|-8~-8~-8~-8~-7~-7~-7~-7~-5~-5~-5~-5~-4~-4~-4~-4~--------|
D|--------------------------------------------------------|
A|-6~-6~-6~-6~-5~-5~-5~-5~-3~-3~-3~-3~-2~-2~-2~-2~--------|
D|--------------------------------------------------------|

[Outro]
Guitar 1
e|-------------------------------------------------------------------|
B|-------------------------------------------------------------------|
G|-------------------------------------------------------------------|
D|-1~----------------------------------------------------------------|
A|-1~----------------------------------------------------------------|
D|-1~----------------------------------------------------------------|

Guitar 2:
e|-----------------------------------------------------------------------|
B|-----------------------------------------------------------------------|
G|-8~~~~~~p7~~~h8~~~----8~----8~---8---8~---8---7~---7---7---7---7---8~--|
D|-8~----------------88----88----8---8----8---8----8---8---8---8---8-----|
A|-6~--------------------------------------------------------------------|
D|-----------------------------------------------------------------------|


************************************

| ~  - let note ring
| /  Slide up
| x  Dead note
| \  Slide down
| b  Bend
| h  Hammer-on
| p  Pull-off
| 
. - stop note right after playing it

************************************

            
            
Suggest correction
Creating personal tab
Creating personal tab
You can edit any tab online and save it as your Personal.

You can edit, replace or remove any tab part or add personal notes – all changes will be seen only by you.

Personal tabs can be accessed anytime from any device, even offline.
Learn more »
Give kudos to tab author, rate the tab!
1 2 3 4 5
comments
print report bad tab
guest
You may want to rate the tab now too:
select rating
Wanna post a correction for this tab? Suggest correction