Oops, an error
Loading. Please wait.

Crave Tab

version 2
version 2

Whole song

91 views 9 this week
no commentswrite comment
1 2 3 4 5
2 more votes to show rating
add to favorites
launch autoscroll
font size
0
reset
how to read this tab
guitar tuner
Autoscroll
slow
fast
+/-
esc
set tempo
stop
Help us to improve Ultimate-Guitar.com Take our survey!
×
Author
Difficulty
intermediate
-----------------------------------------------------------------------------
                           CRAVE - Waterparks
-----------------------------------------------------------------------------
Tuning: Standard (EADGBe)

Guitar 1 - Awsten Knight
Guitar 2 - Geoff Wigington

Check out my guitar cover on YouTube!: https://www.youtube.com/watch?v=h2M9c2eqKL0

Intro/Verse:

Guitar 1
e|----------------------------------------------------------------|
B|----------------------------------------------------------------|
G|----------------------------------------------------------------| 2x
D|----------------------------------------------------------------|
A|-0-0-0-0-0-0-0-0-0-0-0-0-0-5-5-5-5-5-5-3-3-3-3-3-3--------------|
D|----------------------------------------------------------------|
   * * * * * * * * * * * * * * * * * * * * * * * * * 
e|-----------------------------------------------------------------------------------------------------|
B|-----------------------------------------------------------------------------------------------------|
G|-----------------------------------------------------------------------------------------------------|
D|-----------------------------------------------------2-2-2-2-2-2-2-2-2-2-2-2-0-0-0-0-0-0-0-0-0-0-0-0-|
A|-0-0-0-0-0-0-0-0-0-0-0-0-0-0-0-0-0-0-0-0-0-0-0-0-0-0-------------------------------------------------|
D|-----------------------------------------------------------------------------------------------------|
   * * * * * * * * * * * * * * * * * * * * * * * * * * * * * * * * * * * * * * * * * * * * * * * * * * 
e|-----------------------------------------------------------------------------------------------------|
B|-----------------------------------------------------------------------------------------------------|
G|-----------------------------------------------------------------------------------------------------|
D|-----------------------------------------------------2-2-2-2-2-2-2-2-2-2-2-2-0-0-0-0-0-0-------------|
A|-0-0-0-0-0-0-0-0-0-0-0-0-0-0-0-0-0-0-0-0-0-0-0-0-0-0-------------------------------------3-3-3-3-3-3-|
D|-----------------------------------------------------------------------------------------------------|
   * * * * * * * * * * * * * * * * * * * * * * * * * * * * * * * * * * * * * * * * * * * * * * * * * * 
Guitar 2 (comes in at the second bar)
e|----------------------------------------------------------------|
B|----------------------------------------------------------------|
G|-2--2----2--2--5--5--2--2---------------------------------------|
D|-2--2----2--2--5--5--2--2--3~---5~------------------------------| 2x
A|-0--0----0--0--3--3--0--0--3~---5~------------------------------|
D|---------------------------1~---3~------------------------------|

Prechorus (guitar 1 only, clean tone, hard to hear, 2x):
e|-0~-------0~------3~----------------------------------------------|
B|-1~-------1~------3~----------------------------------------------|
G|-2~-------0~------0~----------------------------------------------|
D|-2~-------2~------0~----------------------------------------------|
A|-0~-------3~------2~----------------------------------------------|
D|------------------3~----------------------------------------------|

Chorus:

Guitar 1, 4x
e|----------------------------------------------------------------|
B|----------------------------------------------------------------|
G|---------------5------------------------------------------------|
D|-3------7------5--x16-------------------------------------------|
A|-3--x16-7--x16-3------------------------------------------------|
D|-1------5-------------------------------------------------------|

Guitar 2                   Electronic part V
e|-------------------2x-|----------------------------------12h15--------------------------------------2x-|
B|----------------------|--------------------------------13-----------------------------13-15-17---------|
G|---------------5------|-14--14--14--14--12~-------12-14-------14--14--14--14--12~-------------12h14-12-|
D|-3------7------5--x16-|---------------------14~-14--------------------------------14~------------------|
A|-3--x16-7--x16-3------|-12--12--12--12------------------------12--12--12--12---------------------------|
D|-1------5-------------|--------------------------------------------------------------------------------|

Preverse (Guitar 1 only)
e|---------------------------------------------------------------------------------|
B|---------------------------------------------------------------------------------|
G|---------------------------------------------------------------------------------|
D|---------------------------------------------------------------------------------|
A|-3-3-3-3-3-3-3-3-3-2-2-2-2-2-2-2-2-2-2-0-0-0-0-0-0-0-0-0-0-----------------------|
D|-----------------------------------------------------------4-4-4-4-4-4-4-4-4-4-4-|

Verse 2:

Guitar 1
e|----------------------------------------------------------------|
B|----------------------------------------------------------------|
G|----------------------------------------------------------------| 4x
D|----------------------------------------------------------------|
A|-0-0-0-0-0-0-0-0-0-0-0-0-0-5-5-5-5-5-5-3-3-3-3-3-3--------------|
D|----------------------------------------------------------------|
   * * * * * * * * * * * * * * * * * * * * * * * * * 
e|-----------------------------------------------------------------------------------------------------|
B|-----------------------------------------------------------------------------------------------------|
G|-----------------------------------------------------------------------------------------------------|
D|-----------------------------------------------------2-2-2-2-2-2-2-2-2-2-2-2-0-0-0-0-0-0-0-0-0-0-0-0-|
A|-0-0-0-0-0-0-0-0-0-0-0-0-0-0-0-0-0-0-0-0-0-0-0-0-0-0-------------------------------------------------|
D|-----------------------------------------------------------------------------------------------------|
   * * * * * * * * * * * * * * * * * * * * * * * * * * * * * * * * * * * * * * * * * * * * * * * * * * 
e|-----------------------------------------------------------------------------------------------------|
B|-----------------------------------------------------------------------------------------------------|
G|-----------------------------------------------------------------------------------------------------|
D|-----------------------------------------------------2-2-2-2-2-2-2-2-2-2-2-2-0-0-0-0-0-0-------------|
A|-0-0-0-0-0-0-0-0-0-0-0-0-0-0-0-0-0-0-0-0-0-0-0-0-0-0-------------------------------------3-3-3-3-3-3-|
D|-----------------------------------------------------------------------------------------------------|
   * * * * * * * * * * * * * * * * * * * * * * * * * * * * * * * * * * * * * * * * * * * * * * * * * * 

Prechorus 2: 

Guitar 1                       Guitar 2
e|---------------------------|---------------(0~)---------------|
B|---------------------------|---------------(0~)---------------| This is played by 
G|---------------------------|---------------(0~)---------------| loudly strumming
D|---------------------------|---------------(0~)---------------| by the nut 
A|-5-3---3-------------------|---------------(0~)---------------| of the guitar
D|-----5---5-4-5-4-3---------|---------------(0~)---------------|

Chorus:

Guitar 1, 4x
e|----------------------------------------------------------------|
B|----------------------------------------------------------------|
G|---------------5------------------------------------------------|
D|-3------7------5--x16-------------------------------------------|
A|-3--x16-7--x16-3------------------------------------------------|
D|-1------5-------------------------------------------------------|

Guitar 2                   Electronic part V
e|-------------------2x-|----------------------------------12h15--------------------------------------2x-|
B|----------------------|--------------------------------13-----------------------------13-15-17---------|
G|---------------5------|-14--14--14--14--12~-------12-14-------14--14--14--14--12~-------------12h14-12-|
D|-3------7------5--x16-|---------------------14~-14--------------------------------14~------------------|
A|-3--x16-7--x16-3------|-12--12--12--12------------------------12--12--12--12---------------------------|
D|-1------5-------------|--------------------------------------------------------------------------------|

Bridge:

Guitar 1, 4x
e|----------------------------------------------------------------|
B|----------------------------------------------------------------|
G|----------------------------------------------------------------|
D|-3-----7-----5--------------------------------------------------|
A|-3--x8-7--x8-5--x8----------------------------------------------|
D|-1-----5-----3--------------------------------------------------|

Guitar 2                                   V Electronic parts V        V Electronic parts V
e|-------------------------------------|-----15~-|-----------------|-----15~-|---------------------12h15-|
B|-------------------------------------|-13~-----|-----------------|-13~-----|-------------------13------|
G|-------------------------------------|-----12~-|-14--14--14--14--|-----12~-|-12~----------12h14--------|
D|-3-----7-----5-----3-----7-----5-----|---------|-----------------|---------|-------14~--14-------------|
A|-3--x8-7--x8-5--x8-3--x8-7--x8-5--x8-|---------|-12--12--12--12--|---------|---------------------------|
D|-1-----5-----3-----1-----5-----3-----|------6x-|-----------------|------6x-|---------------------------|

Prechorus (guitar 1 only, clean tone, hard to hear, 2x):
e|-0~-------0~------3~----------------------------------------------|
B|-1~-------1~------3~----------------------------------------------|
G|-2~-------0~------0~----------------------------------------------|
D|-2~-------2~------0~----------------------------------------------|
A|-0~-------3~------2~----------------------------------------------|
D|------------------3~----------------------------------------------|

Final Chorus:
Guitar 1
e|-------------------6x-|-----------------------------------------------|
B|----------------------|-----------------------------------------------|
G|---------------5------|---------------------------------------5-------|
D|-3------7------5--x16-|-3------7----------------3------7------5--x16--|
A|-3--x16-7--x16-3------|-3--x16-7--x16--(pause)--3--x16-7--x16-3-------|
D|-1------5-------------|-1------5----------------1------5--------------|

Guitar 2                   Electronic part V
e|-------------------4x-|----------------------------------12h15-------------------------------------2x-|
B|----------------------|--------------------------------13----------------------------13-15-17---------|
G|---------------5------|-14--14--14--14--12~-------12h14-------14--14--14--14--12~-9~---------12h14-12-|
D|-3------7------5--x16-|---------------------14~-14----------------------------------------------------|
A|-3--x16-7--x16-3------|-12--12--12--12------------------------12--12--12--12--10~-7~------------------|
D|-1------5-------------|-------------------------------------------------------------------------------|

Outro (guitar 1 only):
e|------------------------------------------------------------------------------|
B|------------------------------------------------------------------------------|
G|------------------------------------------------------------------------------|
D|------------------------------------------------------------------------------|
A|-0-0-0-0-0-0-0-0-0-0-0------5-5-5-5-5-5-3-3-3-3----0-0-0-0-0-0----0-0-0-0-0-0-|
D|------------------------------------------------------------------------------|
   * * * * * * * * * * *      * * * * * * * * * *    * * * * * *    * * * * * *  
Suggest correction
Give kudos to tab author, rate the tab!
1 2 3 4 5
comments
print report bad tab
guest
You may want to rate the tab now too:
select rating
Wanna post a correction for this tab? Suggest correction