Oops, an error
Loading. Please wait.

Easter Egg tab

85 views 15 this week
no commentswrite comment
1 2 3 4 5
3 more votes to show rating
add to favorites
×
Save as Personal and add changes to this tab that will be seen only by you. Learn more ›
×
You can save this tab as Personal to edit and correct it or add notes. All changes will be seen only by you. Learn more »
launch autoscroll
font size
0
reset
how to read this tab
guitar tuner
edit
Autoscroll
slow
fast
+/-
esc
set tempo
stop
-----------------------------------------------------------------------------
                           EASTER EGG - Waterparks
-----------------------------------------------------------------------------
Tuning: Drop D (DADGBe)

The rhythms in this song are pretty weird and some are tough based on the speed of them. In my cover on 
YouTube I only did the fast downpicking rhythms that I was sure about, the others are regular strumming.

Link to my cover!: 

Guitar 1 - Awsten Knight
Guitar 2 - Geoff Wigington

[Intro]

Guitar 1
e|-----------------------2x-|---------------------------------------------|--------------------------|
B|--------------------------|---------------------------------------------|--------------------------|
G|--------------------------|---------------------------------------------|--------------------------|
D|-5------9-----0-0-0-7-7-7-|-------5---------5---------9-----------------|-5------9-----0-0-0-7-7-7-|
A|-5--x12-9--x6-0-0-0-7-7-7-|-5-5-5-5-5-5-5-5-5-5-9-9-9-9-9-9-0-0-0-7-7-7-|-5--x16-9--x8-0-0-0-7-7-7-|
D|-5------9-----0-0-0-7-7-7-|-5-5-5-5-5-5-5-5-5-5-9-9-9-9-9-9-0-0-0-7-7-7-|-5------9-----0-0-0-7-7-7-|

Guitar 2
e|--------------|----------------&------------------------------------------------------------1.-|------2.-||
B|--------------|--------------------------------------------------------------------------------|---------||
G|--------------|--------------------------------------------------------------------------------|-7p4-----||
D|-5------9-----|-0-0-0-7-7-7-5------9---------------------5---------5---------9-----------0-0-0-|-----7p4-||
A|-5--x12-9--x6-|-0-0-0-7-7-7-5--x12-9--x6-----------5-5-5-5-5-5-5-5-5-5-9-9-9-9-9-9-0-0-0-0-0-0-|---------||
D|-5------9-----|-0-0-0-7-7-7-5------9----12-0-0-12\-5-5-5-5-5-5-5-5-5-5-9-9-9-9-9-9-0-0-0-0-0-0-|-2x------||
                                                                                                   Play this
[Verse 2]                                                                                             fast

Guitar 2
e|----------------------------------------------------------------2x-|
B|-------------------------------------------------------------------|
G|-------------------------------------------------------------------|
D|-5--5----5-5-5-5---5----9-9-9-9---7--7----7-7-7-7---9---0-0-0-0----|
A|-5--5----5-5-5-5---5----9-9-9-9---7--7----7-7-7-7---9---0-0-0-0----|
D|-5--5----5-5-5-5---5----9-9-9-9---7--7----7-7-7-7---9---0-0-0-0----|

e|-----------------------2x-|-----------------------------------------------------------------------------|
B|--------------------------|-----------------------------------------------------------------------------|
G|--------------------------|---------------------------------------------------------------------------7-|
D|--------------------------|-------5---------5---------9-----------------------5-----9-----0-0-0-7-7-7-7-|
A|-5------9-----0-0-0-7-7-7-|-5-5-5-5-5-5-5-5-5-5-9-9-9-9-9-9-0-0-0-7-7-7-5-5-5-5--x7-9--x6-0-0-0-7-7-7-5-|
D|-5--x16-9--x8-0-0-0-7-7-7-|-5-5-5-5-5-5-5-5-5-5-9-9-9-9-9-9-0-0-0-7-7-7-5-5-5-5-----9-----0-0-0-7-7-7---|

[Chorus] (play the notes in the brackets in the second chorus ONLY):

Guitar 1
e|-------------------------------------------------------------------|
B|-------------------------------------------------------------------|
G|-(7-----)----------------------7-----------------------------------|
D|-(7--x16)-7------9------5------7--x16-7------9------5--------------|
A|-(5-----)-7--x16-9--x16-5--x16-5------7--x16-9--x16-5--x16---------|
D|----------7------9------5-------------7------9------5--------------|

Guitar 2
e|----------------------------------------------------------------------------------------------------|
B|----------------------------------------------------------------------------------------------------|
G|-(14-----)-6-------------7------11-11-11-11-9-9-9-9-11-11-11-11-14-14-14-14-18-18-18-18-19-19-19-19-|
D|-(---x16-)----x16-12-----5--------------------------------------------------------------------------|
A|-(12-----)-4------9--x16-5--x16-9--9--9--9--7-7-7-7-9--9--9--9--12-12-12-12-16-16-16-16-17-17-17-17-|
D|------------------9------5--------------------------------------------------------------------------|

e|--------------------------------------------------------------------------------------|
B|--------------------------------------------------------------------------------------|
G|-18-18-18-18-14-14-14-14-9------------11--------11--------11------14~-14~-11~---------|
D|----------------------------x32-----------------------------------------------12~-----|
A|-16-16-16-16-12-12-12-12-7------------9---------9---------9-------12~-12~-------------|
D|--------------------------------9-9-9-9-9-9-9-9-9-9-9-9-9-9-9-9-9---------------------|
                                  * * *   * * * *   * * * *   * * *
[Re-Intro]

Guitar 1
e|-----------------------2x-|---------------------------------------------|--------------------------|
B|--------------------------|---------------------------------------------|--------------------------|
G|--------------------------|---------------------------------------------|--------------------------|
D|-5------9-----0-0-0-7-7-7-|-------5---------5---------9-----------------|-5------9-----0-0-0-7-7-7-|
A|-5--x12-9--x6-0-0-0-7-7-7-|-5-5-5-5-5-5-5-5-5-5-9-9-9-9-9-9-0-0-0-7-7-7-|-5--x16-9--x8-0-0-0-7-7-7-|
D|-5------9-----0-0-0-7-7-7-|-5-5-5-5-5-5-5-5-5-5-9-9-9-9-9-9-0-0-0-7-7-7-|-5------9-----0-0-0-7-7-7-|

Guitar 2
e|--------------|----------------&------------------------------------------------------------1.-|------2.-||
B|--------------|--------------------------------------------------------------------------------|---------||
G|--------------|--------------------------------------------------------------------------------|-7p4-----||
D|-5------9-----|-0-0-0-7-7-7-5------9---------------------5---------5---------9-----------0-0-0-|-----7p4-||
A|-5--x12-9--x6-|-0-0-0-7-7-7-5--x12-9--x6-----------5-5-5-5-5-5-5-5-5-5-9-9-9-9-9-9-0-0-0-0-0-0-|---------||
D|-5------9-----|-0-0-0-7-7-7-5------9----12-0-0-12\-5-5-5-5-5-5-5-5-5-5-9-9-9-9-9-9-0-0-0-0-0-0-|-2x------||

[Verse 2]

Guitar 1
e|----------------------------------------------------------------(12~)------------------------|
B|----------------------------------------------------------------(12~)------------------------|
G|------------------(random feedback)-----------------------------(12~)------------------------|
D|----------------------------------------------------------------(12~)------5~---9~\2~--------|
A|-5---5~------------------------------12~\--------0-0-9~-7-------(12~)------5~---9~\2~----0~--|
D|-5---5~------------------------------12~\--------0-0-9~-7-------(12~)--12\-5~---9~\2~----0~--|
                                                                                           *
[Chorus]

Guitar 1
e|-----------------------------------------------------------------|
B|-----------------------------------------------------------------|
G|-7---------------------------7-----------------------------------|
D|-7--x16-7------9------5------7--x16-7------9------5--------------|
A|-5------7--x16-9--x16-5--x16-5------7--x16-9--x16-5--x16---------|
D|--------7------9------5-------------7------9------5--------------|

Guitar 2
e|--------------------------------------------------------------------------------------------------|
B|--------------------------------------------------------------------------------------------------|
G|-14------6-------------7------11-11-11-11-9-9-9-9-11-11-11-11-14-14-14-14-18-18-18-18-19-19-19-19-|
D|----x16-----x16-12-----5--------------------------------------------------------------------------|
A|-12------4------9--x16-5--x16-9--9--9--9--7-7-7-7-9--9--9--9--12-12-12-12-16-16-16-16-17-17-17-17-|
D|----------------9------5--------------------------------------------------------------------------|

e|--------------------------------------------------------------------------------------|
B|--------------------------------------------------------------------------------------|
G|-18-18-18-18-14-14-14-14-9------------11--------11--------11------14~-14~-11~---------|
D|----------------------------x32-----------------------------------------------12~-----|
A|-16-16-16-16-12-12-12-12-7------------9---------9---------9-------12~-12~-------------|
D|--------------------------------9-9-9-9-9-9-9-9-9-9-9-9-9-9-9-9-9---------------------|
                                  * * *   * * * *   * * * *   * * *
[Bridge]

Guitar 1 (comes in at 2:34)        V 2:42 
e|-7p5-------------2x-|---------|-----------3x-|-----------3x-|---8x-|---8x-|------------2x-|---------------|
B|--------------------|---------|--------------|--------------|------|------|---------------|---------------|
G|---------(pause)----|-(pause)-|--------------|-7--7--7--7---|------|------|---------------|-7~-7-7-7-7-7\-|
D|--------------------|---------|-9--9--9--9---|-7--7--7--7---|-7~-5-|-5~-4-|-9~-9-9-9-9-9\-|-7~-7-7-7-7-7\-|
A|--------------------|---------|-9--9--9--9---|-5--5--5--5---|-7~-5-|-5~-4-|-9~-9-9-9-9-9\-|-5~-5-5-5-5-5\-|
D|--------------------|---------|-9--9--9--9---|--------------|-7~-5-|-5~-4-|-9~-9-9-9-9-9\-|---------------|

e|-----------------------------------------------------------------------------------------||
B|-10~-10-10-10-10-7-7-7-7-7-5~-5-5-5-5-5-5-5~-x-5~-x-5~-x-5~-x-5~-x-5~-x-5~-x-5~-x--------||
G|----------------------------------------------------------------------------------7------||
D|-------------------------------------------------------------------------------------x16-||
A|----------------------------------------------------------------------------------5------||
D|----------------------------------------------------------------------------------5------||

Guitar 2
e|-----------------------------3x-||---------------------------------|----------1.-|--------------------2.-||
B|--------------------------------||---------------------------------|-------------|-----------------------||
G|--------------------------------||---------4-4-4-4---------2-2-2-2-|-------------|------7--7--7--7--7--7-||
D|--------------------------------||---------4-4-4-4---------2-2-2-2-|-------------|-4~---7--7--7--7--7--7-||
A|-2-x8-0-x8-4-x8-0-------0-------||-2-2-2-2-2-2-2-2-0-0-0-0-0-0-0-0-|-4--x8-------|-4~---5--5--5--5--5--5-||
D|----------------0-0-0-0-0-0-0-0-||---------------------------------|-------0--x8-|-4~--------------------||
   *    *    *    * * *   * * *    * * * *         * * * *           *     *
e|-----------3x-|-----------3x-|---8x-|---8x-|------------2x-|------------2x-|---8x-|---8x-||
B|--------------|--------------|------|------|---------------|---------------|------|------||
G|--------------|-7--7--7--7---|------|------|---------------|-7~-7-7-7-7-7\-|------|------||
D|-9--9--9--9---|-7--7--7--7---|-7~-x-|-5~-x-|-9~-9-9-9-9-9\-|-7~-7-7-7-7-7\-|-7~-x-|-5~-x-||
A|-9--9--9--9---|-5--5--5--5---|-7~-x-|-5~-x-|-9~-9-9-9-9-9\-|-5~-5-5-5-5-5\-|-7~-x-|-5~-x-||
D|-9--9--9--9---|--------------|-7~-x-|-5~-x-|-9~-9-9-9-9-9\-|---------------|-7~-x-|-5~-x-||

[Final Chorus]

Guitar 1
e|-------------------------------------------------------------------|
B|-------------------------------------------------------------------|
G|-(pause)----------------------7------6--2--------------------------|
D|---------7------9------5------7--x12-7--2--4---------9------5------|
A|---------7--x16-9--x16-5--x16-5------4--0--4--x13----9--x16-5--x16-|
D|---------7------9------5-------------------4---------9------5------|

Guitar 2
e|------------------------------------------------------------------------------------------------|
B|------------------------------------------------------------------------------------------------|
G|-7-7-7-7-9-9-9-9-11-11-11-11-14-14-14-14-18-18-18-18-19-19-19-19-18-18-18-18-14-14-14-14-9------|
D|--------------------------------------------------------------------------------------------x16-|
A|-5-5-5-5-7-7-7-7-9--9--9--9--12-12-12-12-16-16-16-16-17-17-17-17-16-16-16-16-12-12-12-12-7------|
D|------------------------------------------------------------------------------------------------|

e|------------------------------------------------------------------------------------|
B|------------------------------------------------------------------------------------|
G|---------7------11-11-11-11-9-9-9-9-11-11-11-11-14-14-14-14-18-18-18-18-19-19-19-19-|
D|--12-----5--------------------------------------------------------------------------|
A|--9--x16-5--x16-9--9--9--9--7-7-7-7-9--9--9--9--12-12-12-12-16-16-16-16-17-17-17-17-|
D|--9------5--------------------------------------------------------------------------|
                                                                                               
e|-------------------------------------|----8x-|---------------(0~)---------|
B|-------------------------------------|-------|---------------(0~)---------|
G|-18-18-18-18-9-------------7--x-7--x-|-14--x-|-7-------------(0~)---------|
D|----------------x12-----------x----x-|-----x-|----x12--------(0~)---------|
A|-16-16-16-16-7------0-0-0--5--x-5--x-|-12--x-|-5-------------(0~)---------|
D|--------------------0-0-0------------|-------|---------------(0~)---------|
                      * * *
[Outro]

Guitar 1
e|---------------------------2x-|---------------------------------------------|-----------------|
B|------------------------------|---------------------------------------------|-----------------|
G|------------------------------|---------------------------------------------|-----------------|
D|-5------9-----0-0-0-0-7-7-7-7-|-------5---------5---------9-----------------|-0-0-0-7------5~-|
A|-5--x16-9--x8-0-0-0-0-7-7-7-7-|-5-5-5-5-5-5-5-5-5-5-9-9-9-9-9-9-0-0-0-7-7-7-|-0-0-0-7--x12-5~-|
D|-5------9-----0-0-0-0-7-7-7-7-|-5-5-5-5-5-5-5-5-5-5-9-9-9-9-9-9-0-0-0-7-7-7-|-0-0-0-7------5~-|

Guitar 2
e|--------------------|----1.-|----2.-||---------------------------------------------|-----------------|
B|--------------------|-------|-------||---------------------------------------------|-----------------|
G|-7------11----------|-------|-------||---------------------------------------------|-------9---------|
D|----x12----x6-0-0-0-|-7-7-7-|-4p2p0-||-------5---------5---------9-----------------|-0-0-0---x12--5~-|
A|-5------9-----0-0-0-|-7-7-7-|-------||-5-5-5-5-5-5-5-5-5-5-9-9-9-9-9-9-0-0-0-7-7-7-|-0-0-0-7------5~-|
D|--------------0-0-0-|-7-7-7-|-------||-5-5-5-5-5-5-5-5-5-5-9-9-9-9-9-9-0-0-0-7-7-7-|-0-0-0-7------5~-|
____________________________________
~ - let note ring
p - pull-off
h - hammer on
x - mute note
(0~) - strum behind nut of guitar
(12~) - lay finger on all 12th fret strings and strum
* - palm mute
Suggest correction
Creating personal tab
Creating personal tab
You can edit any tab online and save it as your Personal.

You can edit, replace or remove any tab part or add personal notes – all changes will be seen only by you.

Personal tabs can be accessed anytime from any device, even offline.
Learn more »
Give kudos to tab author, rate the tab!
1 2 3 4 5
comments
print report bad tab
guest
You may want to rate the tab now too:
select rating
Wanna post a correction for this tab? Suggest correction