Oops, an error
Loading. Please wait.

Hawaii Stay Awake Tab

376 views 30 this week
no commentswrite comment
1 2 3 4 5
2 more votes to show rating
add to favorites
launch autoscroll
font size
0
reset
how to read this tab
guitar tuner
Autoscroll
slow
fast
+/-
esc
set tempo
stop
Help us to improve Ultimate-Guitar.com Take our survey!
×
Author
Difficulty
Tuning
novice
D A D G B E
-----------------------------------------------------------------------------
                           HAWAII (STAY AWAKE) - Waterparks
-----------------------------------------------------------------------------
Tuning: Drop D (DADGBe)

Guitar 1 - Awsten Knight
Guitar 2 - Geoff Wigington

Check out my guitar cover on YouTube!: https://www.youtube.com/watch?v=sCYo82bEWVI

Intro (guitar 2 only, electronic part transcribed to guitar)
e|-----------------------------------------|
B|-9--9--9--9--9-8-6------9--9--9--9-8-6---|
G|-------------------8-------------------8-|
D|---------------------6-------------------|
A|-----------------------------------------|
D|-----------------------------------------|

Band Intro:

Guitar 1
e|----------------------------------------|
B|----------------------------------------|
G|----------------------------------------|
D|-------------------6~--6~--6~--6~--6--6-|
A|-6~--6~--3~--3~----4~--4~--4~--4~--4--4-|
D|-6~--6~--3~--3~-------------------------|

Guitar 2
e|-----------------------------------------------------------------------------------------8~-|
B|----9--9--9--9-8-6------9--9--9--9-8-6------9--9--9--9-8-6---------------6-6-6-8-8-8-9-9----|
G|-------------------8-------------------8-------------------8-8-6-6-8-8-8--------------------|
D|-6-------------------6-------------------6--------------------------------------------------|
A|--------------------------------------------------------------------------------------------|
D|--------------------------------------------------------------------------------------------|

Verse:

Guitar 1
e|----------------------------------------------------------------------|
B|----------------------------------------------------------------------|
G|-(silence)---------------------------------------------------------6--| 
D|-----------------------------------6------------------6------6-6-6-6--|
A|-----------------------6-----3-----4--x16-6-----3-----4--x12-4-4-4-4--| 
D|-----------------------6--x8-3--x8--------6--x8-3--x8-----------------|
                         *     *     *      *     *     *      * * *
e|-----------------------------------------------------|
B|-----------------------------------------------------| This part may 
G|---------------------------------------------------6-| use a delay
D|-------------5-----6-----------------6-6-6-6-6-6-6-6-| effect but palm
A|-1-----3-----3--x8-4--x8-1-----3-----4-4-4-4-4-4-4-4-| muting works
D|-1--x8-3--x8-------------1--x8-3--x8-----------------|
   *     *     *     *     *     *     * * * * * * *

Guitar 2, clean (hard to hear, might be slightly off)
e|----------------------------------------------------|----------|------|
B|-----9~--------9~--------9~-------9~--------9~------|---9~-----|---9~-|
G|---8-----8~--8-----8~--8-----8-10-----10~-8-----10~-|-8-----8~-|-8----|
D|----------------------------------------------------|----------|------|
A|----------------------------------------------------|----------|------|
D|-------------------------------------------------2x-|----------|--8x--|

Guitar 2 cont'd
e|-----------------------------------------------------------------|
B|-11~--9~---11~---9~----11~--9~-----------------------------------|
G|-8~---10~---8~---10~---8~---10~----------------------------------|
D|------------------------------------(silence)--------------------|
A|-----------------------------------------------------------------|
D|-----------------------------------------------------------------|

Chorus:

Guitar 1
e|-------------------------------2x-|-------------------------------|
B|----------------------------------|-------------------------------|
G|--------5------------------6------|-10~---8~\---------------------|
D|-6------5--x16-3-----1-----6--x16-|-10~---8~\---------------------|
A|-6--x16-3------3--x8-1--x8-4------|-8~----6~\---------------------|
D|-6-------------3-----1------------|-------------------------------|

Guitar 2
e|----------------------11~-8~--------------------------------------------------8~-|
B|--------------------8~-------8~-----9~-8~---------------------6-6-6-8-8-8-9-9----|
G|-5~-8--8~--5--8~-8~-----------------------8~------8-6-6-8-8-8--------------------|
D|---------------------------------------------------------------------------------|
A|-------------------(3)---------------------------(4)-----------------------------|
D|-(6)-------------------------------(3)------(1)-------------------------------2x-|
    ^Root notes of the chorus are there to see where to play the notes

Postchorus:

Guitar 1
e|----------------------------------------------------------------|
B|----------------------------------------------------------------|
G|---------------------------6~--6~--6~--6~--6-6-6-6--------------|
D|-6~--6-6~--3~--3~--3-3-3-3-6~--6~--6~--6~--6-6-6-6--------------|
A|-6~--6-6~--3~--3~--3-3-3-3-4~--4~--4~--4~--4-4-4-4--------------|
D|-6~--6-6~--3~--3~--3-3-3-3--------------------------------------|

Guitar 2
e|-----------------------------------------------------------------------------------------8~-|
B|----9--9--9--9-8-6------9--9--9--9-8-6------9--9--9--9-8-6---------------6-6-6-8-8-8-9-9----|
G|-------------------8-------------------8-------------------8-8-6-6-8-8-8--------------------|
D|-6-------------------6-------------------6--------------------------------------------------|
A|--------------------------------------------------------------------------------------------|
D|--------------------------------------------------------------------------------------------|

Verse 2:

Guitar 1
e|-------------------------------------------------------------------------------------------|
B|-------------------------------------------------------------------------------------------|
G|-13~-------10~-------8~------13~----------------------------------------------------6------|
D|----------------------------------------------------6------------------6------6-6-6-6------|
A|-11~-------8~--------6~------11~--------6-----3-----4--x16-6-----3-----4--x12-4-4-4-4------|
D|----------------------------------------6--x8-3--x8--------6--x8-3--x8---------------------|
                                          *     *     *      *     *     *
Guitar 1 cont'd
e|-----------------------------------------------------------------|
B|-----------------------------------------------------------------| This part may use a delay
G|----------------------------------------------------6------------| effect but palm muting works
D|-------------5-----6------------------6-6-6-6-6-6-6-6------------| 
A|-1-----3-----3--x8-4--x16-1-----3-----4-4-4-4-4-4-4-4------------|
D|-1--x8-3--x8--------------1--x8-3--x8----------------------------|
   *     *     *     *      *     *     * * * * * * *
Guitar 2
e|-----------------------------------------------------------|----------|------|
B|-----------------------9~-------9~--------9~---------9~----|---9~-----|---9~-|
G|----(silence)--------8-----8-10-----10~-8-----10~--8-----8-|-8-----8~-|-8----|
D|-----------------------------------------------------------|----------|------|
A|-----------------------------------------------------------|----------|------|
D|-----------------------------------------------------------|----------|---8x-|

Guitar 2 cont'd
e|-----------------------------------------------------------------|
B|-11~--9~---11~---9~----11~--9~-----------------------------------|
G|-8~---10~---8~---10~---8~---10~----------------------------------|
D|------------------------------------(silence)--------------------|
A|-----------------------------------------------------------------|
D|-----------------------------------------------------------------|

Chorus:

Guitar 1
e|-------------------------------2x-|-------------------------------|
B|----------------------------------|-------------------------------|
G|--------5------------------6------|-10~---8~\---------------------|
D|-6------5--x16-3-----1-----6--x16-|-10~---8~\---------------------|
A|-6--x16-3------3--x8-1--x8-4------|-8~----6~\---------------------|
D|-6-------------3-----1------------|-------------------------------|

Guitar 2
e|----------------------11~-8~--------------------------------------------------8~-|
B|--------------------8~-------8~-----9~-8~---------------------6-6-6-8-8-8-9-9----|
G|-5~-8--8~--5--8~-8~-----------------------8~------8-6-6-8-8-8--------------------|
D|---------------------------------------------------------------------------------|
A|-------------------(3)---------------------------(4)-----------------------------|
D|-(6)-------------------------------(3)------(1)-------------------------------2x-|
    ^Root notes of the chorus are there to see where to play the notes

Bridge:
 
Guitar 1 (slight distortion)  2:33 V
e|--------------------------------------------------------------------------------------------------------|
B|--------------------------------------------------------------------------------------------------------|
G|------(silence)------------------8-8~-----8-8~--------8-8~-----8-8~---------------(silence)------8------|
D|-----------------------------------------------6-------------------------------------------------8--x32-|
A|-------------------------------------------------6-44--------------------------------------------6------|
D|--------------------------------------------------------------------------------------------------------|

Guitar 2 (clean tone)
e|--------------------------------------------------------------------|
B|-------9~------------9~------------9~-------9~----------9~-------9~-|
G|-----8-------------8-------------8--------8-----------8--------8----|
D|--------------------------------------------------------------------|
A|--------------------------------------------------------------------|
D|--------------------------------------------------------------------|

Guitar 2 cont'd                                 Back to distortion V
e|------------------------------------------------------------------------------------------|
B|------------------------------------------------------------------------------------------|
G|-----------------------------------------------------------------8~----8~----8~----8~-----|
D|-----------------------------------------------------------------8~----8~----8~----8~-----|
A|------------------------------------------3~-4~--4~--4~--4~--4~--6~----6~----6~----6~-----|
D|-3~--3~--3~--3~--3~-1~-6~--6~--6~--6~--6~-------------------------------------------------|
                                                 These chords are off time^, listen carefully for them
Final Chorus:

Guitar 1
e|-----------------------------------------------------------------------|-------------------------------|
B|-----------------------------------------------------------------------|-------------------------------|
G|-(silence)-5------------------6--------------5------------------6------|-10~---8~\---------------------|
D|-----------5--x16-3-----1-----6--x16-6-------5--x16-3-----1-----6--x16-|-10~---8~\---------------------|
A|-----------3------3--x8-1--x8-4------6--x16--3------3--x8-1--x8-4------|-8~----6~\---------------------|
D|------------------3-----1------------6--------------3-----1------------|-------------------------------|

Guitar 2
e|--------------11~-8~--------------------------------------------8~---|
B|-----------8~--------8~-9~-8~-------------------6-6-6-8-8-8-9-9------|
G|-(silence)--------------------8~----8-6-6-8-8-8----------------------|
D|---------------------------------------------------------------------|
A|---------------------------------------------------------------------|
D|---------------------------------------------------------------------|

e|-11~-11~-11~-------11~-8~---------------------------------------------------8~-|
B|-----------------8~--------8~-------9~-8~-------------------6-6-6-8-8-8-9-9----|
G|------------------------------------------8~----8-6-6-8-8-8--------------------|
D|-------------------------------------------------------------------------------|
A|-------------------------------------------------------------------------------|
D|-------------------------------------------------------------------------------|

Outro:

Guitar 1
e|--------------------------------------------------------------------|
B|--------------------------------------------------------------------|
G|--------------------------------------------------------------------|
D|-6~\-----------6-6~---6-6----6~\------------6------6----------------|
A|-6~\-----3-3---4-4~---4-4----6~\-----3-3~---4--x11-6----------------|
D|-6~\-----3-3-----------------6~\-----3-3~----------6----------------|
           * *          * *            * *  
Guitar 2
e|-----------------------------------------------------------------------------------------8~-|
B|-9--9--9--9--9-8-6------9--9--9--9-8-6------9--9--9--9-8-6---------------6-6-6-8-8-8-9-9----|
G|-------------------8-------------------8-------------------8-8-6-6-8-8-8--------------------|
D|---------------------6-------------------6--------------------------------------------------|
A|--------------------------------------------------------------------------------------------|
D|--------------------------------------------------------------------------------------------|
Suggest correction
Give kudos to tab author, rate the tab!
1 2 3 4 5
comments
print report bad tab
guest
You may want to rate the tab now too:
select rating
Wanna post a correction for this tab? Suggest correction