Oops, an error
Loading. Please wait.

Ill Always Be Around tab

253 views 9 this week
1 commentread comment
1 2 3 4 5
1 last vote to show rating
add to favorites
×
Save as Personal and add changes to this tab that will be seen only by you. Learn more ›
×
You can save this tab as Personal to edit and correct it or add notes. All changes will be seen only by you. Learn more »
launch autoscroll
font size
0
reset
how to read this tab
guitar tuner
edit
Autoscroll
slow
fast
+/-
esc
set tempo
stop
Author
Difficulty
[Main Riff]
(Synth Transcribed to Guitar)
E|--0--0--0--0--4p0--0--0--0--0--0--0--2--0--2h4p0--0--|
B|-----------------------------------------------------|
G|-----------------------------------------------------|
D|-----------------------------------------------------|
A|-----------------------------------------------------|
E|-----------------------------------------------------|

[Verse]
(Rhythm)
E|--0--0--0--0--0--0--0-----0--0--0--0--0--0--0--|
B|--2--2--2--2--2--2--2-----0--0--0--0--0--0--0--|
G|--2--2--2--2--2--2--2-----1--1--1--1--1--1--1--|
D|--2--2--2--2--2--2--2-----2--2--2--2--2--2--2--|
A|--0--0--0--0--0--0--0-----2--2--2--2--2--2--2--|
E|--------------------------0--0--0--0--0--0--0--|

[Pre-Chorus]
(Rhythm)
E|--2-----4-----4-----5--|
B|--2-----5-----4-----5--|
G|--2-----6-----4--------|
D|--4-----6-----6--------|
A|--4-----4-----6--------|
E|--2-----------4--------|

[Chorus]
(Rhythm)
E|-----------------------------|
B|-----------------------------|
G|--------9--9-----------------|
D|--7-----9--9--9--9--9--9--9--|
A|--7-----7--7--9--9--9--9--9--|
E|--5-----------7--7--7--7--7--|

[Chorus]
(Lead)
E|--4-----4-----4-----4-----2-----2-----2-----2-----|
B|-----5-----5-----5-----5-----5-----5-----5-----5--|
G|--------------------------------------------------|
D|--------------------------------------------------|
A|--------------------------------------------------|
E|--------------------------------------------------|

[Bridge]
E|---------------------------------------------------------------------|-----|
B|---------------------------------------------------------------------|-----|
G|---------------------------------------------------------------------|-----|
D|--11--11--11--11-----9--9--9--9--x--9--9-----7--7--7--7--7--7--7--7--|--9--|
A|--11--11--11--11-----9--9--9--9--x--9--9-----7--7--7--7--7--7--7--7--|--x--|
E|--9---9---9---9------7--7--7--7--x--7--7-----5--5--5--5--5--5--5--5--|--7--|


************************************

| h  Hammer-on
| p  Pull-off
| x  Dead note

************************************
Suggest correction
Creating personal tab
Creating personal tab
You can edit any tab online and save it as your Personal.

You can edit, replace or remove any tab part or add personal notes – all changes will be seen only by you.

Personal tabs can be accessed anytime from any device, even offline.
Learn more »
Give kudos to tab author, rate the tab!
1 2 3 4 5
comments
print report bad tab
1 comment total.
0 reply
chio-punk 41 May 22, 2017 09:59 PM

you left out the last part of the bridge

guest
You may want to rate the tab now too:
select rating
Wanna post a correction for this tab? Suggest correction