Oops, an error
Loading. Please wait.

Im A Natural Blue tab

2,431 views 54 this week
no commentswrite comment
1 2 3 4 5
x 4
add to favorites
×
Save as Personal and add changes to this tab that will be seen only by you. Learn more ›
×
You can save this tab as Personal to edit and correct it or add notes. All changes will be seen only by you. Learn more »
launch autoscroll
font size
0
reset
how to read this tab
guitar tuner
edit
Autoscroll
slow
fast
+/-
esc
set tempo
stop
Check out my guitar cover on YouTube!: https://www.youtube.com/watch?v=OtGGC7PIHqs

Guitar 1 - Awsten Knight
Guitar 2 - Geoff Wigington

[Intro] (guitar 1 only, light distortion):
e|-0---00---00---00---0-0---00---0-0---00---0-0---00---00---00---0-0~----2~-----|
B|-3---33---33---33---3-0---00---0-0---00---0-3---33---33---33---3-0~----0~-----|
G|-2---22---22---22---2-2---22---2-2---22---2-2---22---22---22---2-2~----2~-----|
D|-0---00---00---00---0-4---44---4-2---22---2-0---00---00---00---0-4~----2~-----|
A|----------------------4---44---4-0---00---0----------------------4~----0~-----|
D|------------------------------------------------------------------------------|


[Band intro]

Guitar 1
e|---------------------------------------|
B|---------------------------------------|
G|-7------------------7------------------|
D|-7--x16-4-----7-----7--x16-4-----7-----|
A|-5------4--x8-7--x8-5------4--x8-7--x8-|
D|--------4-----7------------4-----7-----| 

Guitar 2
e|----------------------------17-15-14------|-----------------------------17-15-14------|
B|---15------------------14-15--------15-14-|-15-14------------------14-15--------15-14-|
G|-16--16-14--------14-16-------------------|------16-14--------14-16-------------------|
D|----------16-14-16------------------------|-----------16-14-16------------------------|
A|------------------------------------------|-------------------------------------------|
D|------------------------------------------|----------------------------------------3x-|

[Verse] (guitar 2 only, delay effect used on first bar):
e|------------------------12~--9~--|-14---|-16---|-17---|-14---|-19---|
B|-10~----9~------10~-----14~--12~-|---14-|---14-|---14-|---14-|---14-|
G|-11~----11~-----11~--------------|------|------|------|------|------|
D|---------------------------------|------|------|------|------|------|
A|---------------------------------|------|------|------|------|------|
D|------------------------------2x-|---8x-|---4x-|--4x--|---8x-|---8x-|


[Chorus]

Guitar 1
e|---------------------------------------|
B|---------------------------------------|
G|-7------------------7------------------|
D|-7--x16-4-----7-----7--x16-4-----7-----|
A|-5------4--x8-7--x8-5------4--x8-7--x8-|
D|--------4-----7------------4-----7-----| 

Guitar 2
e|----------------------------17-15-14------|-----------------------------17-15-14------|
B|---15------------------14-15--------15-14-|-15-14------------------14-15--------15-14-|
G|-16--16-14--------14-16-------------------|------16-14--------14-16-------------------|
D|----------16-14-16------------------------|-----------16-14-16------------------------|
A|------------------------------------------|-------------------------------------------|
D|------------------------------------------|----------------------------------------3x-|


[Postchorus]

Guitar 1                             Guitar 2
e|-(0)~-------------(0)(0)(0)(0)----|----------------------------------|
B|-(0)~-------------(0)(0)(0)(0)----|-(12)~-------(12)-----------------|
G|-(0)~-------------(0)(0)(0)(0)----|----------------------------------|
D|-(0)~-------------(0)(0)(0)(0)----|----------------------------------|
A|-(0)~-------------(0)(0)(0)(0)----|----------------------------------|
D|-(0)~-------------(0)(0)(0)(0)----|----------------------------------|
   ^ These notes are played by strumming past the fretboard, near where the tuning pegs are


[Verse 2]

Guitar 1 (clean guitar, hard to hear)
e|-14-----14-----10--------14------------14--------10~----------------|
B|-15--x8-14--x8-12--x16---15--x8-14--x8-15--x7-12-12~----------------|
G|-14-----14-----11--------14-----14-----14--------11~----------------|
D|--------------------------------------------------------------------|
A|--------------------------------------------------------------------|
D|--------------------------------------------------------------------|

Guitar 2 (clean)                  Back to distortion V
e|-10~----9~-----7~--------14~--12~--14~--10~-------|-14---|-16---|-17---|-14---|-19---|
B|-12~----10~----7~--------12~--10~--12~--8~--------|---14-|---14-|---14-|---14-|---14-|
G|-11~----11~----7~--------11~--11~--11~--9~--------|------|------|------|------|------|
D|-12~----12~----9~---------------------------------|------|------|------|------|------|
A|---------------9~---------------------------------|------|------|------|------|------|
D|--------------------------------------------------|---8x-|---4x-|--4x--|---8x-|---8x-|


[Chorus]

Guitar 1
e|---------------------------------------|
B|---------------------------------------|
G|-7------------------7------------------|
D|-7--x16-4-----7-----7--x16-4-----7-----|
A|-5------4--x8-7--x8-5------4--x8-7--x8-|
D|--------4-----7------------4-----7-----|  

Guitar 2
e|----------------------------17-15-14------|-----------------------------17-15-14------|
B|---15------------------14-15--------15-14-|-15-14------------------14-15--------15-14-|
G|-16--16-14--------14-16-------------------|------16-14--------14-16-------------------|
D|----------16-14-16------------------------|-----------16-14-16------------------------|
A|------------------------------------------|-------------------------------------------|
D|------------------------------------------|----------------------------------------3x-|


[Bridge]

Guitar 1
e|-----------2x-|-0---000---000---000---0-------------00---0-00---0----------------------------------------|
B|--------------|-2---222---222---222---2-22---222---222---2-22---2-22---222---222---222---2-22---222----2-|
G|-4-----7------|-2---222---222---222---2-22---222---222---2-11---1-22---222---222---222---2-22---222----1-|
D|-4--x6-7--x16-|-0---000---000---000---0-22---222---222---2-22---2-22---222---222---222---2-22---222----2-|
A|-2-----5------|---------------------------------------------------44---444---444---444---4-00---000----0-|
D|--------------|---------------------------------------------------44---444---444---444---4---------------|

Guitar 2
e|-----------------------------------------------------|---------------------------------------------------|
B|-----------------------------------------------------|---------------------------------------------------|
G|-13/1414-13-14~-1414~-14-----9/1111-9-11~-11~-11-----|---(pause)-----------------------------------------|
D|--------------------------x8----------------------x8-|---------------------------------------------------|
A|-11/1212-11-12~-1212~-12-----7/-9-9-7--9~--9~--9-----|---------------------------------------------------|
D|-----------------------------------------------------|---------------------------------------------------|


[Bridge Pt. 2]

Guitar 1
e|-----------------2x-|----------------(0)~---------------------------------|
B|--------------------|----------------(0)~---------------------------------|
G|--------------------|----------------(0)~---------------------4-----6-----|
D|-4------7-----0-----|-44---44---4~---(0)~-------7------0------4--x8-6--x8-|
A|-4--x16-7--x8-0--x8-|-44---44---4~---(0)~-------7--x16-0--x16-2-----4-----|
D|-4------7-----0-----|-44---44---4~---(0)~-------7------0------------------|

Guitar 2
e|-----------------2x-|----------------------------------------------------------|
B|--------------------|----------------------------------------------------------|
G|--------------------|----------------------------------------------4-----6-----|
D|-4------7-----0-----|-44---44---4~--\\\--------------7------6------4--x8-6--x8-|
A|-4--x16-7--x8-0--x8-|-44---44---4~--\\\-(pickscrape)-7--x16-0--x16-2-----4-----|
D|-4------7-----0-----|-44---44---4~--\\\--------------7------0------------------|


[Chorus] for guitar 1 start on the 2nd chord (444xx), for guitar 2 start on the second bar

Guitar 1
e|---------------------------------------|
B|---------------------------------------|
G|-7------------------7------------------|
D|-7--x16-4-----7-----7--x16-4-----7-----|
A|-5------4--x8-7--x8-5------4--x8-7--x8-|
D|--------4-----7------------4-----7-----|  Play this note the 3rd time instead of the 15V

Guitar 2
e|----------------------------17-15-14------|-----------------------------17-15-14------|
B|---15------------------14-15--------15-14-|-15-14------------------14-15--------15-14-|
G|-16--16-14--------14-16-------------------|------16-14--------14-16-------------------|
D|----------16-14-16------------------------|-----------16-14-16------------------------|
A|------------------------------------------|-------------------------------------------|
D|------------------------------------------|----------------------------------------3x-|

Final Chorus, both guitars:
e|---------------------------------------|
B|---------------------------------------|
G|--------------------7------------------|
D|-0~-----4-----7-----7--x16-4-----7-----|
A|-0~--x8-4--x8-7--x8-5------4--x8-7--x8-|
D|-0~-----4-----7------------4-----7-----|



************************************

| x    Dead note
| (n)  Ghost note
| /    Slide up
| \    Slide down
| ~    Vibrato

************************************

            
            
Suggest correction
Creating personal tab
Creating personal tab
You can edit any tab online and save it as your Personal.

You can edit, replace or remove any tab part or add personal notes – all changes will be seen only by you.

Personal tabs can be accessed anytime from any device, even offline.
Learn more »
comments
print report bad tab
guest
You may want to rate the tab now too:
select rating
Wanna post a correction for this tab? Suggest correction