Oops, an error
Loading. Please wait.

It Follows tab

535 views 21 this week
no commentswrite comment
1 2 3 4 5
x 3
add to favorites
×
Save as Personal and add changes to this tab that will be seen only by you. Learn more ›
×
You can save this tab as Personal to edit and correct it or add notes. All changes will be seen only by you. Learn more »
launch autoscroll
font size
0
reset
how to read this tab
guitar tuner
edit
Autoscroll
slow
fast
+/-
esc
set tempo
stop
About this tab version
This is a full Tab of 'It Follows' from Waterpark's debut album "Double Dare" detailing every part. Was this info helpful? Yes No
This is my tab of It Follows by Waterparks.
Comment with any questions.

Anything labeled as synth has been transcribed to guitar and I recommend you play that with a Delay and Chorus

[Intro] (Synth):

E|--4--------------|
B|--------4--2-----|
G|--------------1--|
D|-----------------| (Play Twice)
A|-----------------|
E|-----------------|

[Verse and Pre] (Clean Guitar):
"I Hide My Life Savings..."
E|--2----6--4-----2----6--9--|
B|--2----6--4-----2----6--9--|
G|---------------------------|(Play 4 Times)
D|---------------------------|
A|---------------------------|
E|---------------------------|

[Pre] (Synth):
"This City is Insidious..."
E|--4h6p4~-----4h6p4~-----4h6p4~--------4/6/9--|
B|---------------------------------------------|
G|---------------------------------------------|
D|---------------------------------------------|(Play Twice)
A|---------------------------------------------|
E|---------------------------------------------|

[Chorus] (Guitar):
"I Think With My Heart And..."                      v (Play this 3 times before continuing)
E|--------------------------------------------------|-----------------------------------------|
B|--------------------------------------------------|-----------------------------------------|
G|--------------------------------------6--6--6--6--|-----------------------------------------|
D|--4--4--4--4--8--8--8--8--6--6--6--6--6--6--6--6--|--4--4--4--4--4--4--4--4--8--8--8--8--6--|
A|--4--4--4--4--8--8--8--8--6--6--6--6--4--4--4--4--|--4--4--4--4--4--4--4--4--8--8--8--8--6--|
E|--2--2--2--2--6--6--6--6--4--4--4--4--------------|--2--2--2--2--2--2--2--2--6--6--6--6--4--|

[Breakdown] (Clean Guitar):
"Kiss Me Like Nobody Would..."
E|------------------------------------------------------------------------|
B|--9---11--11--11--11--9---11--11--11--11--9---11--11--------------------|
G|--10--10--10--10--10--10--10--10--10--10--10--10--10--6--8--8--x--x--6--|(Play 4 times)
D|------------------------------------------------------6--6--6--x--x--6--|
A|------------------------------------------------------------------------|
E|------------------------------------------------------------------------|


[Verse 2 and Pre] (Clean Guitar):
"I Hide My Life Savings..."
E|--2----6--4-----2----6--9--|
B|--2----6--4-----2----6--9--|
G|---------------------------|(Play 4 Times)
D|---------------------------|
A|---------------------------|
E|---------------------------|


[Chorus] (Guitar):
"I Think With My Heart And..."                      v (Play this 3 times before continuing)
E|--------------------------------------------------|-----------------------------------------|
B|--------------------------------------------------|-----------------------------------------|
G|--------------------------------------6--6--6--6--|-----------------------------------------|
D|--4--4--4--4--8--8--8--8--6--6--6--6--6--6--6--6--|--4--4--4--4--4--4--4--4--8--8--8--8--6--|
A|--4--4--4--4--8--8--8--8--6--6--6--6--4--4--4--4--|--4--4--4--4--4--4--4--4--8--8--8--8--6--|
E|--2--2--2--2--6--6--6--6--4--4--4--4--------------|--2--2--2--2--2--2--2--2--6--6--6--6--4--|

[Bridge/Breakdown] (Clean Guitar):
"Kiss Me Like Nobody Would..."
E|------------------------------------------------------------------------|
B|--9---11--11--11--11--9---11--11--11--11--9---11--11--------------------|
G|--10--10--10--10--10--10--10--10--10--10--10--10--10--6--8--8--x--x--6--|(Play 4 times before the guitar 
D|------------------------------------------------------6--6--6--x--x--6--| goes silent for the build up)
A|------------------------------------------------------------------------|
E|------------------------------------------------------------------------|

[Chorus x4] (Guitar):
"I Think With My Heart And..."                      v (Play this 3 times before continuing)
E|--------------------------------------------------|-----------------------------------------|
B|--------------------------------------------------|-----------------------------------------|
G|--------------------------------------6--6--6--6--|-----------------------------------------|
D|--4--4--4--4--8--8--8--8--6--6--6--6--6--6--6--6--|--4--4--4--4--4--4--4--4--8--8--8--8--6--| 
A|--4--4--4--4--8--8--8--8--6--6--6--6--4--4--4--4--|--4--4--4--4--4--4--4--4--8--8--8--8--6--|
E|--2--2--2--2--6--6--6--6--4--4--4--4--------------|--2--2--2--2--2--2--2--2--6--6--6--6--4--|


***********************************
| /   Slide up
| \   Slide down
| h   Hummer-on
| p   Pull-off
| ~   Vibrato
| x   Dead note
| b   Bend
***********************************

            
            
Suggest correction
Creating personal tab
Creating personal tab
You can edit any tab online and save it as your Personal.

You can edit, replace or remove any tab part or add personal notes – all changes will be seen only by you.

Personal tabs can be accessed anytime from any device, even offline.
Learn more »
Give kudos to tab author, rate the tab!
1 2 3 4 5
comments
print report bad tab
guest
You may want to rate the tab now too:
select rating
Wanna post a correction for this tab? Suggest correction