Oops, an error
Loading. Please wait.

Little Violence Tab

40 views 36 this week
2 commentsread comments
1 2 3 4 5
3 more votes to show rating
add to favorites
launch autoscroll
font size
0
reset
how to read this tab
guitar tuner
Autoscroll
slow
fast
+/-
esc
set tempo
stop
Help us to improve Ultimate-Guitar.com Take our survey!
×
Author
Difficulty
Tuning
intermediate
D A D G B E
-----------------------------------------------------------------------------
                           LITTLE VIOLENCE - Waterparks
-----------------------------------------------------------------------------
Tuning: Drop D (DADGBe)

Guitar 1 - Awsten Knight
Guitar 2 - Geoff Wigington

Check out my guitar cover on YouTube!: https://www.youtube.com/watch?v=dzsp403vSN0

Intro (guitar 2 starts):

Guitar 2
e|------------------12-12-9-9-----10-9-|
B|----------10-10------------12-12-----|
G|---------------9-9-------------------|
D|-------------------------------------|
A|-9-9-11-12---------------------------|
D|-------------------------------------|

e|------------------------------------------------12-12-12-12------------9--9--9--9--| (==Play 1st/3rd times
B|-------------------------------------10-10-10-10-----------12-12-12-12-10-10-10-10-| (==Play the 2nd
G|-----------------------------------------------------------------------------------| 
D|-----------------------------------------------------------------------------------| 
A|-4-4-4-7-7-7-11-11-11-9-9-9-9-9-9-0~-----------------------------------------------|
D|-4-4-4-7-7-7-11-11-11-9-9-9-9-9-9-----------------------------------------------3x-|

Guitar 1
e|-(0)-|------------------------------------------------3x-|------------------------------|
B|-(0)-|---------------------------------------------------|------------------------------|
G|-(0)-|---------------------------------------------------|------------------------------|
D|-(0)-|---------------------------------------------------|-9----------------------------|
A|-(0)-|-4-4-4-7-7-7-11-11-11-9-9-9-9-9-9-7~--7-7~--7------|-9--x16-----------------------|
D|-(0)-|-4-4-4-7-7-7-11-11-11-9-9-9-9-9-9-7~--7-7~--7--x12-|-9----------------------------|

Verse:

Guitar 1
e|----------------------------------------------------------------------------------------------|
B|----------------------------------------------------------------------------------------------|
G|-7-7---7-6---4-4-----------------7-7---7-6---4-4-------7-7---7-6---4-4-----------------2------|
D|-7-7---7-7---4-4---4-4-4---4-4---7-7---7-7---4-4-------7-7---7-7---4-4---4-4-4---4-4---2--x16-|
A|-5-5---5-4---2-2---4-4-4---4-4---5-5---5-4---2-2-------5-5---5-4---2-2---4-4-4---4-4---0------|
D|-------------------4-4-4---4-4-------------------------------------------4-4-4---4-4----------|

Guitar 2
e|----------------------------------------------------------------2x-|------------------12-12-9-9-----10-9-|
B|-------------------------------------------------------------------|----------10-10------------12-12-----|
G|------------(silence)-------7-7---7-6---4-4-----------------2------|---------------9-9-------------------|
D|----------------------------7-7---7-7---4-4---4-4-4---4-4---2--x16-|-------------------------------------|
A|----------------------------5-5---5-4---2-2---4-4-4---4-4---0------|-9-9-11-12---------------------------|
D|----------------------------------------------4-4-4---4-4----------|----------------------------------4x-|

Prechorus (both guitars):
e|-------------------2x-|
B|----------------------|
G|--------7------9~-11~-|
D|-2------7--x16-9~-11~-|
A|-2--x16-5------7~-9~--|
D|-2--------------------|

Chorus 1:

Guitar 1
e|-----------------------------------|-----------------------|
B|-----------------------------------|-----------------------|
G|--------7------11-----9-----7------|-----------------------|
D|-2------7--x16-11--x8-9--x8-7--x16-|-0~--------------------|
A|-2--x16-5------9------7-----5------|-----------------------|
D|-2---------------------------------|-----------------------|
                                       ^Fade in, use delay effect        
Guitar 2             
e|-12---|-12---|-12---|-12---|-------------------------------|
B|----9-|---10-|----9-|---10-|-------------------------------|
G|------|------|------|------|-11--x16-----------------------|
D|------|------|------|------|-------------------------------|
A|------|------|------|------|-------------------------------|
D|---4x-|---4x-|---4x-|---4x-|-------------------------------|
                                ^Release the fretting finger immediately
Verse 2:                           after each of these notes

Guitar 1, 2x
e|----------------------------------------------------------------------------------------------|
B|----------------------------------------------------------------------------------------------|
G|-7-7---7-6---4-4-----------------7-7---7-6---4-4-------7-7---7-6---4-4-----------------2------|
D|-7-7---7-7---4-4---4-4-4---4-4---7-7---7-7---4-4-------7-7---7-7---4-4---4-4-4---4-4---2--x16-|
A|-5-5---5-4---2-2---4-4-4---4-4---5-5---5-4---2-2-------5-5---5-4---2-2---4-4-4---4-4---0------|
D|-------------------4-4-4---4-4-------------------------------------------4-4-4---4-4----------|

Guitar 2
e|----------------------------------------------------------------------------------------------|
B|----------------------------------------------------------------------------------------------|
G|-7-7---7-6---4-4-----------------7-7---7-6---4-4-------7-7---7-6---4-4-----------------2------|
D|-7-7---7-7---4-4---4-4-4---4-4---7-7---7-7---4-4-------7-7---7-7---4-4---4-4-4---4-4---2--x16-|
A|-5-5---5-4---2-2---4-4-4---4-4---5-5---5-4---2-2-------5-5---5-4---2-2---4-4-4---4-4---0------|
D|-------------------4-4-4---4-4-------------------------------------------4-4-4---4-4----------|

e|------------------12-12-9-9-----10-9-|
B|----------10-10------------12-12-----|
G|---------------9-9-------------------|
D|-------------------------------------|
A|-9-9-11-12---------------------------|
D|----------------------------------4x-|

Chorus 2:

Guitar 1
e|-----------------------------------|
B|-----------------------------------|
G|--------7------11-----9-----7------|
D|-2------7--x16-11--x8-9--x8-7--x16-|
A|-2--x16-5------9------7-----5------|
D|-2---------------------------------|
                                      
Guitar 2             
e|-12---|-12---|-12---|-12---|
B|----9-|---10-|----9-|---10-|
G|------|------|------|------|
D|------|------|------|------|
A|------|------|------|------|
D|---4x-|---4x-|---4x-|---4x-|
                           
Bridge:

Guitar 1
e|---------------------------------------|-------------------------------------------------|
B|---------------------------------------|-------------------------------------------------|
G|---------------------------------------|-------------------------------------------------|
D|---------------------------------------|-------------------------------\\\---------------|
A|-----------(silence)-------------------|-5-5---5-5---4-4---------------\\\--(pickscrape)-|
D|---------------------------------------|-------------------4-4~----4-4-\\\---------------|

Guitar 2
e|------------------------------------2x-|----------------------------------------------------------2x-|
B|---------------------------------------|-------------------------------------------------------------|
G|---------------------------------------|-------------------------------------------------------------|
D|---------------------------------------|-------------------------------------------------------------|
A|-4--x8-7--x8-2--x16-4--x8-7--x8-9--x16-|-5-5---5-5---4-4---------------------------4-4---------------|
D|-4-----7-----2------4-----7-----9------|-------------------4-4~----4-4/7-7---7-7---------4-4~----4-4-|
   *     *     *      *     *     *
Bridge Pt. 2:

Guitar 1
e|----------------------------------------------------------------------------------------------|
B|----------------------------------------------------------------------------------------------|
G|-7-7---7-6---4-4-----------------7-7---7-6---4-4-------7-7---7-6---4-4-----------------2------|
D|-7-7---7-7---4-4---4-4-4---4-4---7-7---7-7---4-4-------7-7---7-7---4-4---4-4-4---4-4---2--x16-|
A|-5-5---5-4---2-2---4-4-4---4-4---5-5---5-4---2-2-------5-5---5-4---2-2---4-4-4---4-4---0------|
D|-------------------4-4-4---4-4-------------------------------------------4-4-4---4-4----------|

Guitar 2
e|------------------12-12-9-9-----10-9-|------------------12-12-12b14~-|
B|----------10-10------------12-12-----|----------10-10----------------|
G|---------------9-9-------------------|---------------9-9-------------| Play the first
D|-------------------------------------|-------------------------------| bar here 2x
A|-9-9-11-12---------------------------|-9-9-11-12---------------------|
D|----------------------------------5x-|-------------------------------|

Chorus 3:

Guitar 1
e|-----------------------------------|
B|-----------------------------------|
G|--------7------11-----9-----7------|
D|-2------7--x16-11--x8-9--x8-7--x16-|
A|-2--x16-5------9------7-----5------|
D|-2---------------------------------|
                                      
Guitar 2             
e|-12---|-12---|-12---|-12---|
B|----9-|---10-|----9-|---10-|
G|------|------|------|------|
D|------|------|------|------|
A|------|------|------|------|
D|---4x-|---4x-|---4x-|---4x-|

Outro (both guitars):
e|--------------------------------4x-|
B|-----------------------------------|
G|-----------------------------------|
D|-4-4-4-7-7-7-11-11-11-9-9-9-9-9-9--|
A|-4-4-4-7-7-7-11-11-11-9-9-9-9-9-9--|
D|-4-4-4-7-7-7-11-11-11-9-9-9-9-9-9--|
Suggest correction
Give kudos to tab author, rate the tab!
1 2 3 4 5
comments
print report bad tab
2 comments total.
0 reply
tyradatt 137 7 days ago

this isnt the whole song :/

0 reply
lg187 2,088 7 days ago

i think it got deleted during the approval process automatically cause I used the left arrow symbol....all fixed now!

guest
You may want to rate the tab now too:
select rating
Wanna post a correction for this tab? Suggest correction