Oops, an error
Loading. Please wait.

Mad All The Time Tab

124 views 24 this week
no commentswrite comment
1 2 3 4 5
3 more votes to show rating
add to favorites
launch autoscroll
font size
0
reset
how to read this tab
guitar tuner
Autoscroll
slow
fast
+/-
esc
set tempo
stop
Help us to improve Ultimate-Guitar.com Take our survey!
×
Author
Difficulty
Tuning
intermediate
D A D G B E
MAD ALL THE TIME - Waterparks
Tuning: Drop D (DADGBe)

Check out my guitar cover on YouTube!: https://www.youtube.com/watch?v=4KoBM4zMJ64

Guitar 1 - Awsten Knight
Guitar 2 - Geoff Wigington

[Intro/Verse]
Guitar 1 (I messed up the timing of this in my YouTube cover)
e|---------------------------------------------------------------------------------------------------------|
B|---------------------------------------------------------------------------------------------------------|
G|---------------------/10~-----7~---/11~-10\7~------6~----------------10~-----10~------10~----10~----10~--|
D|--------------------------8~--8~-------------------8~----------------8~-8~---8~--8~---11~----8~-----8~---|
A|---------------------------------------------------------------------------------------------------------|
D|---------------------------------------------------------------------------------------------------------|

Guitar 2
e|---------4x--------|
B|------9~-|-----11~-|
G|---10----|---10----|
D|-8-------|-8-------|
A|---------|---------|
D|------4x-|------4x-|

[Prechorus/Chorus]
Guitar 1
e|---------------------------------------------------------------------|
B|---------------------------------------------------------------------|
G|-3-----------6------3-----------6------------------------------------|
D|-3--x8-4-----6--x16-3--x8-4-----6--x14---1------4--------------------|
A|-1-----4--x8-4------1-----4--x8-4--------1--x32-4--x32---------------|
D|-------4------------------4--------------1------4--------------------|

Guitar 2
e|-16~-----|-16~-----|-----------18~---16~--16~-----16~-----16~----------------------------|
B|-----18~-|-----16~-|----18~--16----16---------18~-----18~-----18~--16-16\---------2------|
G|---------|---------|-------------------------------------------------------8------3------|
D|---------|---------|----------------------------------------------------------x32----x32-|
A|---------|---------|-------------------------------------------------------6------1------|
D|------4x-|------4x-|---------------------------------------------------------------------|

[Verse 2]
Guitar 1
e|---------4x--------|---------4x--------|
B|------9~-|-----11~-|------9~-|-----11~-|
G|---10----|---10----|---10----|---10----|
D|-8-------|-8-------|-8-------|-8-------|
A|---------|---------|---------|---------|
D|------4x-|------4x-|------4x-|------4x-|

e|-------------------|-------------------------|
B|-------------------|-------------------------|
G|-----(silence)-----|-------------------------|
D|-------------------|-3--x8-----------------6-|
A|-------------------|-1-----4--x8-6--x12---66-|
D|-------------------|-------4-----6------6666-|
                       *     *     *      **

[Prechorus/Chorus]
Guitar 1
e|---------------------------------------------------------------------|
B|---------------------------------------------------------------------|
G|-3-----------6------3-----------6------------------------------------|
D|-3--x8-4-----6--x16-3--x8-4-----6--x14---1------4--------------------|
A|-1-----4--x8-4------1-----4--x8-4--------1--x32-4--x32---------------|
D|-------4------------------4--------------1------4--------------------|

Guitar 2
e|-16~-----|-16~-----|-----------18~---16~--16~-----16~-----16~----------------------------|
B|-----18~-|-----16~-|----18~--16----16---------18~-----18~-----18~--16-16\---------2------|
G|---------|---------|-------------------------------------------------------8------3------|
D|---------|---------|----------------------------------------------------------x32----x32-|
A|---------|---------|-------------------------------------------------------6------1------|
D|------4x-|------4x-|---------------------------------------------------------------------|

[Extended Chorus] (1:40)
Guitar 1          Guitar 2 (hard to hear)
e|---------------|---------------6t--9t-|-11t---9t---|
B|---------------|---------9t-----------|------------|
G|---------------|---6-8-6--------------|------------|
D|-1------4------|-8--------------------|------------|
A|-1--x32-4--x32-|----------------------|------------|
D|-1------4------|-------------------2x-|--------2x--|

[Bridge] (guitar 2 only):
e||----4-6---6-4-6---6-4-6---6-4-6---6-----------------------------------8---11----11---|
B||o---6-6---6-6-6---6-6-6---6-6-6---6---6---6---6---6---6---6---6---6-9-9---13-14-13---|
G||------------------------------------6-6---6-6-6---6-6-6---6-6-6---6-8-----13-13-13---|
D||------------------------------------6-------8-------8-------8------------------------|
A||o------------------------------------------------------------------------------------|
D||-------------------------------------------------------------------------------------|

e|-11----11---11----11-----------------------------------------------||-------------|
B|-13-14-13---13-14-13---14----14---14----14---14----14---14----14--o||--14---------|
G|-13-13-13---13-13-13---13-11-13---13-11-13---13-11-13---13-11-13---||--13---------|
D|--------------------------11---------11---------11---------11------||-------------|
A|------------------------------------------------------------------o||-------------|
D|-------------------------------------------------------------------||-------------|

[Break] (guitar 2 only):
e|---------|---------|
B|------9~-|-----11~-|
G|---10----|---10----|
D|-8-------|-8-------|
A|---------|---------|
D|------4x-|------4x-|

[Prechorus/Chorus]
Guitar 1
e|---------------------------------------------------------------------|
B|---------------------------------------------------------------------|
G|-3-----------6------3-----------6------------------------------------|
D|-3--x8-4-----6--x16-3--x8-4-----6--x12--(pause)--1------4------------|
A|-1-----4--x8-4------1-----4--x8-4----------------1--x32-4--x32-------|
D|-------4------------------4----------------------1------4------------|

Guitar 2
e|-16~-----|-16~-----|-----------18~---16~--16~-----16~-----16~----------------------------|
B|-----18~-|-----16~-|----18~--16----16---------18~-----18~-----18~-----------------2------|
G|---------|---------|-------------------------------------------------------8------3------|
D|---------|---------|----------------------------------------------------------x32----x32-|
A|---------|---------|-------------------------------------------------------6------1------|
D|------4x-|------4x-|---------------------------------------------------------------------|

[Extended Chorus]
Guitar 1          Guitar 2
e|---------------|---------------6t--9t-|-11t---9t---|
B|---------------|---------9t-----------|------------|
G|---------------|---6-8-6--------------|------------|
D|-1------4------|-8--------------------|------------|
A|-1--x32-4--x32-|----------------------|------------|
D|-1------4------|-------------------2x-|--------2x--|

[Outro] (guitar 1 only, light distortion)
e|----------------------------------------|
B|----------------------------------------|
G|-3-----------6------3-----------6-------| For this part follow the strum pattern
D|-3--x8-4-----6--x16-3--x8-4-----6--x12--|
A|-1-----4--x8-4------1-----4--x8-4-------|
D|-------4------------------4-------------|

************************************

| /  Slide up
| \  Slide down
| ~  Vibrato
| x  Dead note
| t  Tapping

************************************
Suggest correction
Give kudos to tab author, rate the tab!
1 2 3 4 5
comments
print report bad tab
guest
You may want to rate the tab now too:
select rating
Wanna post a correction for this tab? Suggest correction