Oops, an error
Loading. Please wait.

Made In America tab

508 views 1 this week
no commentswrite comment
1 2 3 4 5
3 more votes to show rating
add to favorites
×
Save as Personal and add changes to this tab that will be seen only by you. Learn more ›
×
You can save this tab as Personal to edit and correct it or add notes. All changes will be seen only by you. Learn more »
launch autoscroll
font size
0
reset
how to read this tab
guitar tuner
edit
Autoscroll
slow
fast
+/-
esc
set tempo
stop
-----------------------------------------------------------------------------
                           MADE IN AMERICA - Waterparks
-----------------------------------------------------------------------------
Tuning: Drop D (DADGBe)

Guitar 1 - Awsten Knight
Guitar 2 & 3 - Geoff Wigington

Check out my guitar cover on YouTube!: https://www.youtube.com/watch?v=nP1UWrYVbK0

[Intro/Verse]
Guitar 1
e|-------------------------------------------------------------------------------------------------|
B|-------------------------------------------------------------------------------------------------|
G|-4---4---4--4---4---4---4--4~---------11-11-11-11-9-9-9-9------9--9--9--9--4---4---4--4---4---4--|
D|-4---4---4--4---4---4---4--4~-----------------------------5~---------------4---4---4--4---4---4--|
A|-2---2---2--2---2---2---2--2~---------9--9--9--9--7-7-7-7-5~---7--7--7--7--2---2---2--2---2---2--|
D|----------------------------------------------------------5~-------------------------------------|

Guitar 2 - Probably not 100% correct
e|------------------------------------14-10---------------------------14-10----------------------|
B|---------------------12-10--10--12-------14-10-------12-10--10--12-------14-10-------12-10--10-|
G|----(silence)-------------11--11--11----------12-11-------11--11--11----------12-11-------11---|
D|---------------------------------------------------14------------------------------14----------|
A|-----------------------------------------------------------------------------------------------|
D|-----------------------------------------------------------------------------------------------|

[Chorus]
Guitar 1, 2x
e|----------------------------------------------|
B|----------------------------------------------|
G|----------------------------------------------|
D|-5~----9~----7~-------------------------------|
A|-5~----9~----7~-------------------------------|
D|-5~----9~----7~-------------------------------|

Guitar 2, 2x
e|----------------------------------------------|
B|----------------------------------------------|
G|-7-----11----14------4~--6~-------------------|
D|----x8----x8-----x8---------------------------|
A|-5-----9-----12------2~--4~-------------------|
D|----------------------------------------------|

[Preverse]
Guitar 1
e|----------------------------------------------|
B|----------------------------------------------|
G|-4---4---4--4---4---4---4--4~-----------------|
D|-4---4---4--4---4---4---4--4~-----------------|
A|-2---2---2--2---2---2---2--2~-----------------|
D|----------------------------------------------|

Guitar 2
e|-------10-------------10----------------------|
B|----------12-------12----12-10----------------|
G|-------------------------------11-------------|
D|----------------------------------------------|
A|----------------------------------------------|
D|----------------------------------------------|

[Verse 2]
Guitar 1 (comes in the 2nd time Guitar 2 plays)
e|-----------|---------|-----------|
B|-10-10-----|-5-5p0-0-|-15-15p0-0-|
G|-------7-7-|---------|-----------|
D|-----------|---------|-----------|
A|-----------|---------|-----------|
D|--------8x-|------7x-|-----------|

Guitar 2
e|--------------------------------------------------------------------------------|
B|--------------------------------------------------------------------------------|
G|--------------------------------------------------------------------------------|
D|-------------7-------------------7---7---------4-----4-------------4----4---4-0-|
A|-2--xx-5--xx---5--xx-2--xx-5--xx---5---5----------xx---5--xx---------xx---5-----|
D|-----------------------------------------5--xx---------------5--xx--------------|

[Pre-Chorus]
Guitar 1
e|-------------------------------------|
B|-------------------------------------|
G|-4---4---4--4---4---4---4--4~--------|
D|-4---4---4--4---4---4---4--4~--------|
A|-2---2---2--2---2---2---2--2~--------|
D|-------------------------------------|

Guitar 2 - Probably not 100% correct
e|------------------------------------14-10---------------------------14-10----------------------|
B|---------------------12-10--10--12-------14-10-------12-10--10--12-------14-10-------12-10--10-|
G|----(silence)-------------11--11--11----------12-11-------11--11--11----------12-11-------11---|
D|---------------------------------------------------14------------------------------14----------|
A|-----------------------------------------------------------------------------------------------|
D|-----------------------------------------------------------------------------------------------|

Repeat:
[Chorus]

[Bridge]
(guitars come in at 1:40):

Guitar 1
e|-------------------------------------------------------7--x8-5--x16-------7--x8-5--x8-|
B|-------------------------------------------------8--x8--------------8--x8-------------|
G|-------------------------------------------7------------------------------------------|
D|-9~----------------------5-----7-----9-----7--x8--------------------------------------|
A|-9~----------------------5--x8-7--x8-9--x8-5------------------------------------------|
D|-9~----------------------5-----7-----9------------------------------------------------|

Guitar 2
e|---------------------------------------------------------------------------------------------------|
B|-------------------------------------------------------------------------7--x8-5--x8-12~~~~~~~~~~~-|
G|-7~----------------------7-----9-----11----14----------------------7--x8-------------14b14b14b14b--|
D|----------------------------x8----x8----x8-----x8--------------------------------------------------|
A|-5~----------------------5-----7-----9-----12------------------------------------------------------|
D|---------------------------------------------------------------------------------------------------|

[Outro]
Guitar 3 - Crazy Guitar Solo Somewhat Improvised
e|-t15p7h10p7-t15p7h10p7-t15p7h10p7-t15p7h10p7-t14p7h9p7-t14p7h9p7-t14p7h9p7-t14p7h9p7-|
B|-------------------------------------------------------------------------------------|
G|-------------------------------------------------------------------------------------|
D|-------------------------------------------------------------------------------------|
A|-------------------------------------------------------------------------------------|
D|-------------------------------------------------------------------------------------|

e|-17-14----------------------------14-|--------------|-------------|-----------|
B|------17-14------------------14-17---|--------------|-------------|-----------|
G|-----------16-14--------14-16--------|-11h12h14t16p-|-9h11h12t14p-|-6h7h9t11p-|
D|----------------16-14-16-------------|--------------|-------------|-----------|
A|-------------------------------------|--------------|-------------|-----------|
D|-------------------------------------|-----------4x-|----------4x-|--------8x-|

Guitar 1
e|----------------------------------------------|
B|----------------------------------------------|
G|-4---4---4--4---4---4---4--4~-----------------|
D|-4---4---4--4---4---4---4--4~-----------------|
A|-2---2---2--2---2---2---2--2~-----------------|
D|----------------------------------------------|

Guitar 2 - Outro solo 2x, on the second time skip the last note
e|------------------------------------14-10---------------------------14-10----------------------|
B|---------------------12-10--10--12-------14-10-------12-10--10--12-------14-10-------12-10--10-|
G|----(silence)-------------11--11--11----------12-11-------11--11--11----------12-11-------11---|
D|---------------------------------------------------14------------------------------14----------|
A|-----------------------------------------------------------------------------------------------|
D|-----------------------------------------------------------------------------------------------|
 
************************************

| ~  Vibrato
| x  Dead note
| p  Pull-off
| b  Bend
| h  Hammer-on
| t  Tapping 

************************************

            
            
Suggest correction
Creating personal tab
Creating personal tab
You can edit any tab online and save it as your Personal.

You can edit, replace or remove any tab part or add personal notes – all changes will be seen only by you.

Personal tabs can be accessed anytime from any device, even offline.
Learn more »
Give kudos to tab author, rate the tab!
1 2 3 4 5
comments
print report bad tab
guest
You may want to rate the tab now too:
select rating
Wanna post a correction for this tab? Suggest correction